Log in

One click and you are in

Login with Facebook Login with Google

Why sign up and log in

Guitar Tabs Explorer
Ray Charles bass tabs for Hit the road jack

Bass tabs

hit_the_road_jack_ray charles

Basstab by Jan Bjorklund, Finland <jani_bjorklund@yahoo.se>
You are welcome to request for basstabs!
Bienvenidos a pedirme transcripciones para el bajo!
Fingering and positions as suggested by TablEdit.

TablEdited by Jan Bjorklund

Tuning : E A D G 	Time Signature: 4/4

 |       |       |       |        |       |       |       |
|1-------------------------------|--------------------------------|
|----------------4---------------|2---------------1---------------|
|--------------------------------|--------------------------------|
|--------------------------------|--------------------------------|

 |       |       |       |        |       |       |       |
|1-------------------------------|--------------------------------|
|----------------4---------------|2---------------1---------------|
|--------------------------------|--------------------------------|
|--------------------------------|--------------------------------|

 |       |       |       |        |       |       |       |
|1-------------------------------|------------------------0-------|
|----------------4---------------|2---------------1---------------|
|--------------------------------|--------------------------------|
|--------------------------------|--------------------------------|

 |       |       |       |        |       |       |       |
|1-------------------------------|------------------------0-------|
|----------------4---------------|2---------------1---------------|
|--------------------------------|--------------------------------|
|--------------------------------|--------------------------------|

 |       |       |       |        |       |       |       |
|1-------------------------------|--------------------------------|
|----------------4---------------|2---------------1-------1-------|
|--------------------------------|--------------------------------|
|--------------------------------|--------------------------------|

 |       |       |       |        |       |       |       |
|1-------------------------------|------------------------0-------|
|----------------4---------------|2---------------1---------------|
|--------------------------------|--------------------------------|
|--------------------------------|--------------------------------|

 |       |       |       |        |       |       |       |
|1-------------------------------|------------------------0-------|
|----------------4---------------|2---------------1---------------|
|--------------------------------|--------------------------------|
|--------------------------------|--------------------------------|

 |       |       |       |        |       |       |       |
|1-------------------------------|------------------------0-------|
|----------------4---------------|2---------------1---------------|
|--------------------------------|--------------------------------|
|--------------------------------|--------------------------------|

 |       |       |       |        |       |       |       |
|1-------------------------------|--------------------------------|
|----------------4---------------|2---------------1-------1-------|
|--------------------------------|--------------------------------|
|--------------------------------|--------------------------------|

 |       |       |       |        |       |       |       |
|1-------------------------------|------------------------0-------|
|----------------4---------------|2---------------1---------------|
|--------------------------------|--------------------------------|
|--------------------------------|--------------------------------|

 |       |       |       |        |       |       |       |
|1-------------------------------|------------------------0-------|
|----------------4---------------|2---------------1---------------|
|--------------------------------|--------------------------------|
|--------------------------------|--------------------------------|

 |       |       |       |        |       |       |       |
|1-------------------------------|------------------------0-------|
|----------------4-----------4---|2---------------1---------------|
|--------------------------------|--------------------------------|
|--------------------------------|--------------------------------|

 |       |       |       |        |       |       |       |
|1-------------------------------|--------------------------------|
|----------------4---------------|2-----------1-------------------|
|--------------------------------|--------------------------------|
|--------------------------------|--------------------------------|

 |       |       |       |        |       |       |       |
|1-------------------------------|------------------------0-------|
|----------------4-----------1---|2---------------1---------------|
|--------------------------------|--------2-----------------------|
|--------------------------------|--------------------------------|

 |       |       |       |        |       |       |       |
|1-------------------------------|------------------------0-------|
|----------------4-----------4---|2---------------1---------------|
|--------------------------------|--------------------------------|
|--------------------------------|--------------------------------|

 |       |       |       |        |       |       |       |
|1-------------------------------|------------------------0-------|
|----------------4-----------4---|2---------------1---------------|
|--------------------------------|--------------------------------|
|--------------------------------|--------------------------------|

 |       |       |       |        |       |       |       |
|1-------------------------------|--------------------------------|
|----------------4-----------4---|2---------------1-------1-------|
|--------------------------------|--------------------------------|
|--------------------------------|--------------------------------|

 |       |       |       |        |       |       |       |
|1-------------------------------|------------------------0-------|
|----------------4-----------4---|2-----------2---1---------------|
|--------------------------------|--------------------------------|
|--------------------------------|--------------------------------|

 |       |       |       |        |       |       |       |
|1-------------------------------|------------------------0-------|
|----------------4-----------4---|2---------------1---------------|
|--------------------------------|--------------------------------|
|--------------------------------|--------------------------------|

 |       |       |       |        |       |       |       |
|1-------------------------------|------------------------0-------|
|----------------4-----------4---|2---------------1---------------|
|--------------------------------|--------------------------------|
|--------------------------------|--------------------------------|

 |       |       |       |        |       |       |       |
|1-------------------------------|--------------------------------|
|----------------4-----------4---|2---------------1-------1-------|
|--------------------------------|--------------------------------|
|--------------------------------|--------------------------------|

 |       |       |       |        |       |       |       |
|1-------------------------------|------------------------0-------|
|----------------4-----------4---|2-----------2---1---------------|
|--------------------------------|--------------------------------|
|--------------------------------|--------------------------------|

 |       |       |       |        |       |       |       |
|1-------------------------------|------------------------0-------|
|----------------4---------------|2-----------2---1---------------|
|--------------------------------|--------------------------------|
|--------------------------------|--------------------------------|

 |       |       |       |        |       |       |       |
|1-------------------------------|------------------------0-------|
|----------------4---------------|2-----------2---1---------------|
|--------------------------------|--------------------------------|
|--------------------------------|--------------------------------|

 |       |       |       |        |       |       |       |
|1-------------------------------|--------------------------------|
|----------------4-----------4---|2---------------1-------1-------|
|--------------------------------|--------------------------------|
|--------------------------------|--------------------------------|

 |       |       |       |        |       |       |       |
|1-------------------------------|--------------------------------|
|----------------4---------------|2---------------1-------1-------|
|--------------------------------|--------2-----------------------|
|--------------------------------|--------------------------------|

 |       |       |       |        |       |       |       |
|1-------------------------------|--------------------------------|
|----------------4---------------|2-----------1-------------------|
|--------------------------------|--------------------------------|
|--------------------------------|--------------------------------|

 |       |       |       |        |       |       |       |
|1-------------------------------|--------------------------------|
|----------------4---------------|2---------------1---------------|
|--------------------------------|--------2-----------------------|
|--------------------------------|--------------------------------|

 |       |       |       |        |       |       |       |
|1-------------------------------|------------------------0-------|
|----------------4-----------4---|2---------------1---------------|
|--------------------------------|--------------------------------|
|--------------------------------|--------------------------------|

 |       |       |       |        |       |       |       |
|1-------------------------------|------------------------0-------|
|----------------4-----------4---|2---------------1---------------|
|--------------------------------|--------------------------------|
|--------------------------------|--------------------------------|

 |       |       |       |        |       |       |       |
|1-------------------------------|--------------------------------|
|----------------4-----------4---|2---------------1-------1-------|
|--------------------------------|--------------------------------|
|--------------------------------|--------------------------------|

 |       |       |       |        |       |       |       |
|1-------------------------------|--------------------------------|
|----------------4-----------4---|2---------------1---------------|
|--------------------------------|--------------------------------|
|--------------------------------|--------------------------------|

 |       |       |       |        |       |       |       |
|1-------------------------------|------------------------0-------|
|----------------4---------------|2-----------2---1---------------|
|--------------------------------|--------------------------------|
|--------------------------------|--------------------------------|

 |       |       |       |        |       |       |       |
|1-------------------------------|------------------------0-------|
|----------------4---------------|2---------------1---------------|
|--------------------------------|--------------------------------|
|--------------------------------|--------------------------------|

 |       |       |       |        |       |       |       |
|1-------------------------------|----------------------------1---|
|----------------4-----------4---|2---------------1---------------|
|--------------------------------|--------------------------------|
|--------------------------------|--------------------------------|

 |       |       |       |        |       |       |       |
|--------------------------------|----------------------------1---|
|------------4---------------2---|------------1-------------------|
|--------------------------------|--------------------------------|
|--------------------------------|--------------------------------|

 |       |       |       |        |       |       |       |
|--------------------------------|------------------------0-------|
|----------------4---------------|2-----------2---1---------------|
|--------------------------------|--------------------------------|
|--------------------------------|--------------------------------|

 |       |       |       |        |       |       |       |
|1-------------------------------|------------------------0-------|
|----------------4-----------4---|2---------------1---------------|
|--------------------------------|--------------------------------|
|--------------------------------|--------------------------------|

 |       |       |       |        |       |       |       |
|1-------------------------------|------------------------0-------|
|----------------4-----------4---|2---------------1---------------|
|--------------------------------|--------------------------------|
|--------------------------------|--------------------------------|

 |       |       |       |        |       |       |       |
|1-------------------------------|------------------------0-------|
|----------------4-----------4---|2---------------1---------------|
|--------------------------------|--------2-----------------------|
|--------------------------------|--------------------------------|

 |       |       |       |        |       |       |       |
|1-------------------------------|--------------------------------|
|----------------4---------------|2---------------1---------------|
|--------------------------------|--------------------------------|
|--------------------------------|--------------------------------|

 |       |       |       |        |       |       |       |
|1-------------------------------|--------------------------------|
|----------------4-----------4---|2---------------1---------------|
|--------------------------------|--------------------------------|
|--------------------------------|--------------------------------|

 |       |       |       |        |       |       |       |
|1-------------------------------|--------------------------------|
|----------------4---------------|2-----------1-------------------|
|--------------------------------|--------------------------------|
|--------------------------------|--------------------------------|

 |       |       |       |        |       |       |       |
|1-------------------------------|------------------------0-------|
|----------------4-----------4---|2---------------1---------------|
|--------------------------------|--------2-----------------------|
|--------------------------------|--------------------------------|

 |       |       |       |        |       |       |       |
|1-------------------------------|------------------------0-------|
|----------------4-----------4---|2---------------1---------------|
|--------------------------------|--------------------------------|
|--------------------------------|--------------------------------|

 |       |       |       |        |       |       |       |
|1-------------------------------|--------------------------------|
|----------------4-----------4---|2---------------1-------1-------|
|--------------------------------|--------------------------------|
|--------------------------------|--------------------------------|

 |       |       |       |        |       |       |       |
|1-------------------------------|--------------------------------|
|----------------4-----------4---|2---------------1-------1-------|
|--------------------------------|--------------------------------|
|--------------------------------|--------------------------------|

 |       |       |       |        |       |       |       |
|1-------------------------------|------------------------0-------|
|----------------4-----------4---|2-----------2---1---------------|
|--------------------------------|--------------------------------|
|--------------------------------|--------------------------------|

 |       |       |       |        |       |       |       |
|1-------------------------------|--------------------------------|
|----------------4-----------4---|2---------------1-------1-------|
|--------------------------------|--------------------------------|
|--------------------------------|--------------------------------|

 |       |       |       |        |       |       |       |
|1-------------------------------|------------------------0-------|
|----------------4-----------4---|2---------------1---------------|
|--------------------------------|--------------------------------|
|--------------------------------|--------------------------------|

 |       |       |       |        |       |       |       |
|1-------------------------------|--------------------------------|
|----------------4-----------4---|2---------------1-------1-------|
|--------------------------------|--------------------------------|
|--------------------------------|--------------------------------|

 |       |       |       |        |       |       |       |
|1-------------------------------|--------------------------------|
|----------------4-----------4---|2-----------2---1-------1-------|
|--------------------------------|--------------------------------|
|--------------------------------|--------------------------------|

 |       |       |       |        |       |       |       |
|1-------------------------------|--------------------------------|
|----------------4-----------4---|2---------------1-------1-------|
|--------------------------------|--------------------------------|
|--------------------------------|--------------------------------|

 |       |       |       |        |       |       |       |
|1-------------------------------|--------------------------------|
|----------------4-----------4---|2---------------1-------1-------|
|--------------------------------|--------------------------------|
|--------------------------------|--------------------------------|

 |       |       |       |        |       |       |       |
|1-------------------------------|--------------------------------|
|----------------4-----------4---|2---------------1-------1-------|
|--------------------------------|--------------------------------|
|--------------------------------|--------------------------------|

 |       |       |       |        |       |       |       |
|1-------------------------------|--------------------------------|
|----------------4-----------4---|2-----------2---1-------1-------|
|--------------------------------|--------------------------------|
|--------------------------------|--------------------------------|

 |       |       |       |        |       |       |       |
|1-------------------------------|--------------------------------|
|----------------4-----------4---|2---------------1-------1-------|
|--------------------------------|--------------------------------|
|--------------------------------|--------------------------------|

 |       |       |       |        |       |       |       |
|1-------------------------------|--------------------------------|
|----------------4-----------4---|2---------------1-------1-------|
|--------------------------------|--------------------------------|
|--------------------------------|--------------------------------|

 |       |       |       |        |       |       |       |
|1-------------------------------|--------------------------------|
|----------------4-----------4---|2---------------1-------1-------|
|--------------------------------|--------------------------------|
|--------------------------------|--------------------------------|

 |       |       |       |        |       |       |       |
|1-------------------------------|--------------------------------|
|----------------4-----------4---|2-----------2---1-------1-------|
|--------------------------------|--------------------------------|
|--------------------------------|--------------------------------|

 |       |       |       |        |       |       |       |
|1-------------------------------|--------------------------------|
|----------------4-----------4---|2---------------1-------1-------|
|--------------------------------|--------------------------------|
|--------------------------------|--------------------------------|

 |       |       |       |        |       |       |       |
|1-------------------------------|--------------------------------|
|----------------4-----------4---|2---------------1-------1-------|
|--------------------------------|--------------------------------|
|--------------------------------|--------------------------------|

 |       |       |       |        |       |       |       |
|1-------------------------------|--------------------------------|
|----------------4-----------4---|2---------------1-------1-------|
|--------------------------------|--------------------------------|
|--------------------------------|--------------------------------|

 |       |       |       |        |       |       |       |
|1-------------------------------|--------------------------------|
|----------------4-----------4---|2-----------2---1-------1-------|
|--------------------------------|--------------------------------|
|--------------------------------|--------------------------------|




............................................................

↓ Add and view comments below ↓

What do you think about this song and these tabs?

Add your comments, questions, rant or a thumbs up below.

Almost there ...

Sign in to get your own page with links to favourite songs and more. You are just one click away...

Login with Facebook Login with Google