Log in

One click and you are in

Login with Facebook Login with Google

Why sign up and log in

Guitar Tabs Explorer
Ray Charles guitar tabs for Georgia on my mind

Guitar tabs

Tuning: Standard (E A D G B E)

Key: A chord diagramC majorC

Difficulty: Intermediate

e|--------3-------0---0---------0--5---3------------------------------------0-------3------5-----------------|
B|----/5--------3---3----3---1-----3-------3h4p3-1-----------1----1--3------1-------3------2-----------------|
G|----/3---------------------------3--------------------(2)--2----1---------0-------1------2-----------------|
D|---------------------------------------------------------------------------------------------------------|
A|----/3------2--------------0----------------------------------------------3-------1----------0-------------|
E|--------------------0------------3-----------------2-------1-----------------------------------------------|
      A chord diagramC7C7A chord diagramE7E7     A chord diagramA minorAm   A chord diagramAm/GAm/G               F#ø     A chord diagramFF    A chord diagramF minorFm        A chord diagramC majorC       A chord diagramBb13Bb13   A chord diagramA majorA

e|---------------------------|--------0----0---1-----3---3---|-------------------0---------------------------|
B|-----1--3--3h4p3--1--------|------1------2---1---4---4-----|------1--1---------0---------------------------|
G|---2-----------------------|--1s2--------0---2---4---------|--1s2--------------1---------------------------|
D|-0-------------------------|-------------2---0-------------|-------------------0---------------------------|
A|---------------------------|--------3----0---0-------------|-------------3-----2---------------------------|
E|----------------------3----|-------------0---0---3---------|-------------------0---------------------------|
   A chord diagramDm7Dm7           A chord diagramG MajorG            1st Ending   A chord diagramA7A7 A chord diagramDm7Dm7  GbB        2nd Ending         A chord diagramE7E7

e|---------------0--------------1--------------0---0---3p0---2---------------0---3----5---7---5---5----------|
B|--------1--3-------1-----1----1-------1--3-------1---------1--------1--3-------2----5---5-------5----------|
G|------2---------------2-------2-----2------------0---------2-----2-------------3----5---6-------5----------|
D|-------------0----------------1----------0-----------------0-------------------2----4---5-------4----------|
A|--0----------------0----------3---0--------------0-------------0-------------------------------------------|
E|------------------------------1----------------------------------------------------------------------------|
    A chord diagramA minorAm   A chord diagramDmDm          A chord diagramA minorAm         A chord diagramF7F7  A chord diagramDmDm             A chord diagramAm7Am7 A chord diagramD7D7        A chord diagramA minorAm              Eo   Aø  A7-9

e|--------------------------------------|-----------(19)--Harmonic-------------------------------------------|
B|--------1--3--3--1--------------------|--------------------------------------------------------------------|
G|-----2--------------2-2h3p2--0--------|--------------------------------------------------------------------|
D|--0-----------------------------------|--------------------------------------------------------------------|
A|--------------------------------------|--------------------------------------------------------------------|
E|--------------------------------3-----|--------------------------------------------------------------------|
    A chord diagramDmDm                A chord diagramG MajorG                   End with


s - Slide
p - Pick off
h - Hammer on

All credits to LicknRiff

https://www.youtube.com/watch v=4u2hWr7hYMw

Other versions of Georgia On My Mind

Georgia on My MindChords

↓ Add and view comments below ↓

What do you think about this song and these tabs?

Add your comments, questions, rant or a thumbs up below.

Almost there ...

Sign in to get your own page with links to favourite songs and more. You are just one click away...

Login with Facebook Login with Google