Search tabs and chords

Search for song, artist or band

Log in

One click and you are in

Login with Facebook Login with Google

Why sign up and log in

Guitar Tabs Explorer
The Chainsmokers guitar tabs for Who do you love

Guitar tabs

Tuning: Standard (E chord diagramEE A chord diagramAA D chord diagramDD G chord diagramGG B chord diagramBB E chord diagramEE)

Key: Eb chord diagramEbEb

Difficulty: Novice

Intro:

e|-------11-15-11-15---------------------------------------------------------|
B|-13-12---------------------------------------------------------------------|
G|---------------------------------------------------------------------------|
D|---------------------------------------------------------------------------|
A|---------------------------------------------------------------------------|
E|---------------------------------------------------------------------------|

Verse 1:

e|-11-15-11-15-|-11-15-11-15-|-11-15-11-15-|-11-15-11-15-|
B|-------------|-------------|-------------|-------------|
G|-------------|-------------|-------------|-------------|
D|-------------|-------------|-------------|-------------|
A|-------------|-------------|-------------|-------------|
E|-------------|-------------|-------------|-------------|

Chorus:

   Ab chord diagramAbAb Eb chord diagramEbEb Gm chord diagramGmGm Cm chord diagramCmCm Bb chord diagramBbBb
e|--4--6--3--3--1--------------------------------------------------------------|
B|--4--8--3--4--3--------------------------------------------------------------|
G|--5--8--3--5--3--------------------------------------------------------------|
D|--6--8--5--5--3--------------------------------------------------------------|
A|--6--6--5--3--1--------------------------------------------------------------|
E|--4-----3--------------------------------------------------------------------|

Verse 2:

e|-11-15-11-15-|-11-15-11-15-|-11-15-11-15-|-11-15-11-15-|
B|-------------|-------------|-------------|-------------|
G|-------------|-------------|-------------|-------------|
D|-------------|-------------|-------------|-------------|
A|-------------|-------------|-------------|-------------|
E|-------------|-------------|-------------|-------------|

Chorus:

   Ab chord diagramAbAb Eb chord diagramEbEb Gm chord diagramGmGm Cm chord diagramCmCm Bb chord diagramBbBb
e|--4--6--3--3--1--------------------------------------------------------------|
B|--4--8--3--4--3--------------------------------------------------------------|
G|--5--8--3--5--3--------------------------------------------------------------|
D|--6--8--5--5--3--------------------------------------------------------------|
A|--6--6--5--3--1--------------------------------------------------------------|
E|--4-----3--------------------------------------------------------------------|

Bridge:

Solo:
The 13h15 is optional but I think it sounds better with it.

e|-------------11-10-------11-10-------11-10---------------------------------|
B|-13-13h15-11-------13----------13------------------------------------------|
G|----------------------12----------12---------------------------------------|
D|---------------------------------------------------------------------------|
A|---------------------------------------------------------------------------|
E|---------------------------------------------------------------------------|

e|-------------11-10-------11-10-------11-10---------------------------------|
B|-13-13h15-11-------13----------13------------------------------------------|
G|----------------------12----------12---------------------------------------|
D|---------------------------------------------------------------------------|
A|---------------------------------------------------------------------------|
E|---------------------------------------------------------------------------|

Chorus:

e|-------------11-10-------11-10-------11-10---------------------------------|
B|-13-13h15-11-------13----------13------------------------------------------|
G|----------------------12----------12---------------------------------------|
D|---------------------------------------------------------------------------|
A|---------------------------------------------------------------------------|
E|---------------------------------------------------------------------------|

e|-------------11-10-------11-10-------11-10---------------------------------|
B|-13-13h15-11-------13----------13------------------------------------------|
G|----------------------12----------12---------------------------------------|
D|---------------------------------------------------------------------------|
A|---------------------------------------------------------------------------|
E|---------------------------------------------------------------------------|



************************************

| h  Hammer-on

************************************

Other versions of Who Do You Love

Who do you loveChords
Who do you love (Ver. 2)Chords
Who do you love (Ver. 3)Chords

Almost there ...

Sign in to get your own page with links to favourite songs and more. You are just one click away...

Login with Facebook Login with Google