Log in

One click and you are in

Login with Facebook Login with Google

Why sign up and log in

Guitar Tabs Explorer
The Chainsmokers bass tabs for Something just like this

Something Just Like This bass tab by The Chainsmokers

The Chainsmokers bass tabs for Something just like this

Bass tabs

VERSE 1: (0.28)

G|----------------|----------------|----------------|----------------|
D|----------------|----------------|----------------|----------------|
A|----------------|----------------|----------------|----------------|
E|3-3-3-3-3-5-5-5-|7-7-7-7-7-5-5-5-|3-3-3-3-3-5-5-5-|7-7-7-7-7-5-5-5-| X4
 1 + 2 + 3 + 4 + 1 + 2 + 3 + 4 + 1 + 2 + 3 + 4 + 1 + 2 + 3 + 4 +

CHORUS: (1.05)

G|----------------|----------------|----------------|----------------|
D|----------------|----------------|----------------|----------------|
A|----------------|----------------|----------------|----------------|
E|3---3-3-5---5-5-|7---7-7-7-5-5-5-|3---3-3-5---5-5-|7---7-7-7-5-5-5-| X2
 1 + 2 + 3 + 4 + 1 + 2 + 3 + 4 + 1 + 2 + 3 + 4 + 1 + 2 + 3 + 4 +


VERSE 2: - Same as VERSE 1 (1.23)

G|----------------|----------------|----------------|----------------|
D|----------------|----------------|----------------|----------------|
A|----------------|----------------|----------------|----------------|
E|3-3-3-3-3-5-5-5-|7-7-7-7-7-5-5-5-|3-3-3-3-3-5-5-5-|7-7-7-7-7-5-5-5-| X4
 1 + 2 + 3 + 4 + 1 + 2 + 3 + 4 + 1 + 2 + 3 + 4 + 1 + 2 + 3 + 4 +


CHORUS: (2.01)

G|----------------|----------------|----------------|----------------|
D|----------------|----------------|----------------|----------------|
A|----------------|----------------|----------------|----------------|
E|3---3-3-5---5-5-|7---7-7-7-5-5-5-|3---3-3-5---5-5-|7---7-7-7-5-5-5-| X2
 1 + 2 + 3 + 4 + 1 + 2 + 3 + 4 + 1 + 2 + 3 + 4 + 1 + 2 + 3 + 4 +


BREAK: - No bass(2.19)


VERSE 3: (2.38)

G|----------------|----------------|----------------|----------------|
D|----------------|----------------|----------------|----------------|
A|----------------|----------------|----------------|----------------|
E|3-3-3-3-3-5-5-5-|7-7-7-7-7-7-7-7-|3-3-3-3-3-2-2-2-|0-0-0-0-0-2-2-2-|
 1 + 2 + 3 + 4 + 1 + 2 + 3 + 4 + 1 + 2 + 3 + 4 + 1 + 2 + 3 + 4 +

G|----------------|----------------|----------------|----------------|
D|----------------|----------------|----------------|----------------|
A|----------------|----------------|----------------|----------------|
E|3-3-3-3-3-5-5-5-|7-7-7-7-7-5-5-5-|3-3-3-3-3-5-5-5-|7-7-7-7-7-5-5-5-|
 1 + 2 + 3 + 4 + 1 + 2 + 3 + 4 + 1 + 2 + 3 + 4 + 1 + 2 + 3 + 4 +


BRIDGE: (2.57)

G|----------------|----------------|----------------|----------------|
D|----------------|----------------|----------------|----------------|
A|----------------|----------------|----------5-5-5-|5-----5-5-------|
E|3-3-3-3-3-5-5-5-|5-7-7-7-7-7-7-7-|3-3-3-3-3-------|--5-5-----5-5-5-|
 1 + 2 + 3 + 4 + 1 + 2 + 3 + 4 + 1 + 2 + 3 + 4 + 1 + 2 + 3 + 4 +

G|----------------|----------------|----------------|----------------|
D|----------------|----------------|----------------|----------------|
A|----------------|----------------|----------5-5-5-|5-----5-5-------|
E|2-2-2-2-2-5-5-5-|5-7-7-7-7-7-7-7-|3-3-3-3-3-------|--5-5-----5-5-5-|
 1 + 2 + 3 + 4 + 1 + 2 + 3 + 4 + 1 + 2 + 3 + 4 + 1 + 2 + 3 + 4 +

BREAKDOWN: (3.16)

G|----------------|----------------|----------------|----------------|
D|----------------|----------------|----------------|----------------|
A|----------------|----------5-5-4-|----------------|----------5-5-5-|
E|3---0-3-5---0-5-|7---5-7-7-------|3---0-3-5---0-5-|7---5-7-7-------| X4
 1 + 2 + 3 + 4 + 1 + 2 + 3 + 4 + 1 + 2 + 3 + 4 + 1 + 2 + 3 + 4 +

Almost there ...

Sign in to get your own page with links to favourite songs and more. You are just one click away...

Login with Facebook Login with Google