Don't Let Me Down by The Chainsmokers

Don't Let Me Down tab by The Chainsmokers

Guitar tabs

Intro:

e|---------11-11-11----------------------------------------------|
B|---9-9-7----------11-11-11-11/12-12-11-------------------------|
G|---------------------------------------------------------------| x2
D|---------------------------------------------------------------|
A|---------------------------------------------------------------|
E|---------------------------------------------------------------|


Verse:

Crashing, hit a wall...
e|---------11-11-11----------------------------------------------|
B|---9-9-7----------11-11-11-11/12-12-11-------------------------|
G|---------------------------------------------------------------| x4
D|---------------------------------------------------------------|
A|---------------------------------------------------------------|
E|---------------------------------------------------------------|


Pre-Chorus:

I need ya...
e|---------------------------------------------------------------|
B|---------------------------------------------------------------|
G|--------8-8-8--------------------------------------------------| x4
D|--6-6-4-------8-8-8-8/9-9-8------------------------------------|
A|---------------------------------------------------------------|
E|---------------------------------------------------------------|


Chorus:

       E  G#m  F#
Don't let me down
       B        E  G#m
Don't let me down, down, down
       F#         B
Don't let me down, don't let me down, down, down


Verse:

Running out of time...
e|---------11-11-11----------------------------------------------|
B|---9-9-7----------11-11-11-11/12-12-11-------------------------|
G|---------------------------------------------------------------| x2
D|---------------------------------------------------------------|
A|---------------------------------------------------------------|
E|---------------------------------------------------------------|


Pre-Chorus:

I need ya...
e|---------------------------------------------------------------|
B|---------------------------------------------------------------|
G|--------8-8-8--------------------------------------------------| x4
D|--6-6-4-------8-8-8-8/9-9-8------------------------------------|
A|---------------------------------------------------------------|
E|---------------------------------------------------------------|


Chorus:

       E  G#m  F#
Don't let me down
       B        E  G#m  F#
Don't let me down, down, down
       B        E  G#m  F#
Don't let me down, down, down
       B        E  G#m
Don't let me down, down, down
       F#         B        E  G#m
Don't let me down, don't let me down, down, down

F#             B        E  G#m
Ooh, I think I'm losing my mind now, yeah
F#             B        E  G#m
Ooh, I think I'm losing my mind now, yeah


(single strum)

 G#m          E         F#
I need ya, I need ya, I need you right now
        B
Yeah I need you right now
  G#m             E         F#
So don't let me, don't let me, don't let me down
           B
I think I'm losing my mind now


(pick up strumming)

      G#m       E
It's in my head, darling I hope
        F#            B
That you'll be here when I need you the most
  G#m             E         F#
So don't let me, don't let me, don't let me down
       B   G#m  E
Don't let me down
F#         B   G#m  E
Yeah, don't let me down
F#         B   G#m  E  F#
Yeah, don't let me down
       B      G#m  E
Don't let me down, oh no
         F#
Said don't let me down
       B
Don't let me down


(single strum)

       G#m  E  F#
Don't let me down
       B
Don't let me down, down, down


Outro:

G#m E F#


************************************

| / Slide up

Other versions of Don't Let Me Down

Alternative guitar chords and tabs for Don't Let Me Down by The Chainsmokers

Find guitar tabs and chords

A B C D E F G H I J K L M N O P Q R S T U V W X Y Z #