Log in

One click and you are in

Login with Facebook Login with Google

Why sign up and log in

Guitar Tabs Explorer
Chada X Rx bass tabs for Nie zatrzyma mnie nikt

Nie Zatrzyma Mnie Nikt bass tab by Chada X Rx

Chada X Rx bass tabs for Nie zatrzyma mnie nikt

Bass tabs

Key: Am


Intro:

G|------------------------------------|
D|------------------------------5-----|
A|7--7---5-7---7---5-7--7---5-7----8--|
E|------------------------------------|

Verse 1:

G|------------------------------------|
D|------------------------------5-----|
A|7--7---5-7---7---5-7--7---5-7----8--|
E|------------------------------------|


Chorus:

G|------------------------------------|
D|------------------------------5-----|
A|7--7---5-7---7---5-7--7---5-7----8--|
E|------------------------------------|


Verse 2:

G|------------------------------------|
D|------------------------------5-----|
A|7--7---5-7---7---5-7--7---5-7----8--|
E|------------------------------------|


Chorus:

G|------------------------------------|
D|------------------------------5-----|
A|7--7---5-7---7---5-7--7---5-7----8--|
E|------------------------------------|


Cheers and enjoy!
Roland

Almost there ...

Sign in to get your own page with links to favourite songs and more. You are just one click away...

Login with Facebook Login with Google