Log in

One click and you are in

Login with Facebook Login with Google

Why sign up and log in

Guitar Tabs Explorer
Cavetown bass tabs for Sweet tooth

Bass tabs with lyrics

  • Difficulty: Beginner
Tuning: Standard (E A D G)

🎸 Verse 1:


 Feeling sick of myself...
G|--------------------------------------|
D|-----------------------3 3 3 3--------| x4
A|------3 3 3 3----------3 3 3 3--------|
E|--------------------------------------|

 Cant be hard to paint a person...
G|----------------------------------------------------------------------------------------|
D|-------------------------------------- 0 0 0 0 0 0 0 0 2 2 2 2 2 2 2 2 3 3 3 3 3 3 3 3--|
A|-0 0 0 0 0 0 0 0 -----------------------------------------------------------------------|
E|----------------------------------------------------------------------------------------|


G|--------------------------------------|
D|-----------------------3 3 3 3--------|     x4
A|------3 3 3 3----------3 3 3 3--------|
E|--------------------------------------|

 Must be satisfactory...
G|----------------------------------------------------------------------------------------|
D|------------------------------ 0 0 0 0 0 0 0 0 2 2 2 2 2 2 2 2 3 3 3 3 3 3 3 3 ---------|
A|0 0 0 0 0 0 0 0 ------------------------------------------------------------------------|
E|----------------------------------------------------------------------------------------|


G|-----------------------------------|
D|-----------------------3 3 3 3-----|
A|------3 3 3 3----------3 3 3 3-----|
E|-----------------------------------|

 You know i find it hard to understand..
G|--------------------------------------|
D|2 2 2 2 2 2 2 2--3 3 3 3 3 3 3 3------|
A|--------------------------------------|
E|--------------------------------------|


G|--------------------------------------|
D|-------------------------3 3 3 3------|
A|------3 3 3 3----------3 3 3 3--------|
E|--------------------------------------|


 Pay a visit to the doctor….
G|--------------------------------------|
D|2 2 2 2 2 2 2 2--3 3 3 3 3 3 3 3------|
A|--------------------------------------|
E|--------------------------------------|


🎸 Chorus:

 sweet tooth for you...
G|---------------------------------------------------------------------------------------------|
D|---------------------2  2 --------------------------------3  3  3  3------------------| x3
A|3------------------------------------0  0  0  0----------------------------------------|
E|---------------------------------------------------------------------------------------------|


 My chest with my fist...
G|----------------------------------------------------------------------------------------------|
D|---------------------------2  2 ------------------------------------------------------------|
A|-----3  3------------------------------------------------------------------------------------|
E|----------------------------------------------------------------5-----------------------------|

 post 🎸 Chorus:
 i like you, say it back...
G|----------------------------------------------------------------------------------------------|
D|----------------------------------------------------------------------------------------------|
A|----------------------------------------------------------------------------------------------|
E| ------1--------------------------------------------------------------------------------------|


G|------------------|
D|g-----------------|
A|--- 3 3 3 3 3 3--| x2
E|-----------------|




🎸 Verse 2:

 Never had a cavity..
G|-----------------------------------|
D|-----------------------3 3 3 3-----|
A|------3 3 3 3----------3 3 3 3-----|
E|-----------------------------------|


 Never had nobody as sweet as you...
G|------------------------------------------------------------|
D|------------------------------------------------------------|
A|-------3 3 3 3 3 3 3 3---------- 0 0 0 0 0 0 0 0------------|
E|------------------------------------------------------------|

 sweet around the edges, good as new..
G|------------------------------------------------------------|
D|--0 0 0 0 0 0 0 0 2 2 2 2 2 2 2 2 3 3 3 3 3 3 3 3 ----------|
A|------------------------------------------------------------|
E|------------------------------------------------------------|

G|-------------------------------------|
D|-------------------------3 3 3 3-----|
A|------3 3 3 3------------3 3 3 3-----|
E|-------------------------------------|


G|--------------------------------------|
D|-2 2 2 2 2 2 2 2--3 3 3 3 3 3 3 3-----|
A|--------------------------------------|
E|--------------------------------------|


G|-------------------------------------|
D|-------------------------3 3 3 3-----|
A|------3 3 3 3------------3 3 3 3-----|
E|-------------------------------------|


 I know every learning curve of your tattoo,
G|--------------------------------------|
D|2 2 2 2 2 2 2 2--3 3 3 3 3 3 3 3------|
A|--------------------------------------|
E|--------------------------------------|


 🎸 Chorus:
    sweet tooth for you..
G|---------------------------------------------------------------------------------------------------|
D|------------------0---2  2 ---2----------------------------------------3  3  3  3-----------| x3
A|--3--3---3------------------------------3 -0   0  0  0---------------------------------------|
E|---------------------------------------------------------------------------------------------------|


 My chest with my fist...
G|-------------------------------------------------------------|
D|---------------0 2-----2-------------------------------------|
A|---3-----3--3------------------------------------------------|
E|--------------------------------------------5----------------|

Post-🎸 Chorus:

  Say it back (say it back)
G|---------------------------1-------------2-------------------|
D|--3------------------------------------------------------3---|
A|-------------------------------------------------------------|
E|-------------------------------------------------------------|

 Sweet tooth
G|-------------------------------------------------------------|
D|----2-----------2------------3-------------------------------|
A|----------------------------------------3---------------3----|
E|-------------------------------------------------------------|

 For you
G|-------------------------------2-----------------------------|
D|------2------------------------------------------------------|
A|-------------------------------------------------------------|
E|-------------------------------------------------------------|

  Is filled with scribbles tore the page
G|f--------------------------2----------------------------------|
D|--2------------------------------------------------------3---|
A|-------------------------------------------------------------|
E|--------------------------------------------1----------------|


 Decipher them..
G|-------------------------------------------------------------|
D|---2-----------------------------3---------------------------|
A|----------------0-----------------------------------3--------|
E|-------------------------------------------------------------|

 Repair the stitches..
G|-------------------------------2--------------------------------|
D|------2-----------------------------------------3---------------|
A|-----------------------------------------------------------------|
E|----------------------------------------------------------------|


🎸 Outro:
Sweet tooth for you my honey dew...
g------------------------------------------------------------------------------------------------------|
d---------------------------2----2 -------------------------------------------3------3-----------------| x3
a-----3---3-------------------------------------------0----0-------------------------------------------|
e------------------------------------------------------------------------------------------------------|

 The safety pin, i like you say it back.
G|---------------------------------------------2---------------|
D|--------------------------2----------------------------------|
A|-----3-------3-----------------------------------------------|
E|--------------------------------------------------------1----|

Almost there ...

Sign in to get your own page with links to favourite songs and more. You are just one click away...

Login with Facebook Login with Google