Guitar Tabs Explorer
Cavetown guitar tabs for Slow dancing in the dark acoustic

Slow Dancing In The Dark Acoustic tab


Be the first to rate

Slow Dancing In The Dark Acoustic tab by Cavetown

Guitar tabs

Print

  • Capo on 1st
Tuning: Drop C chord diagramCC (C chord diagramCC G chord diagramGG C chord diagramCC F chord diagramFF A chord diagramAA D chord diagramDD)

Difficulty: Intermediate

Capo 1 on A chord diagramAA,D,G,B, and top E chord diagramEE. Bottom E chord diagramEE tuned down to C chord diagramCC

Verse 1:

e|----------------------------------|----------------------------------|
B|----------1---------------1-------|----------1---------------1-------|
G|--------1---1-----------1---1-----|--------1---1-----------1---1-----|
D|------3-------3-------3-------3---|------3-------3-------3-------3---|
A|----4-----------4---4-----------4-|----3-----------3---3-----------3-|
C| chord diagramC|C|--0---------------0---------------|--4---------------4---------------|


e|----------------------------------|----------------------------------|
B|----------2---------------2-------|----------1---------------1-------|
G|--------3---3-----------3---3-----|--------1---1-----------2---2-----|
D|------1-------1-------1-------1---|------1-------1-------1-------1---|
A|----1-----------1---1-----------1-|----3-----------3---3-----------3-|
C| chord diagramC|C|--2---------------2---------------|--4---------------4---------------|


Chorus:

e|----------------------------------|----------------------------------|
B|----------1---------------1-------|----------1---------------1-------|
G|--------1---1-----------1---1-----|--------1---1-----------1---1-----|
D|------3-------3-------3-------3---|------4-------4-------4-------4---|
A|----4-----------4---4-----------4-|----4-----------4---4-----------4-|
C| chord diagramC|C|--0---------------0---------------|--5---------------5---------------|


Verse 2:

e|----------------------------------|----------------------------------|
B|----------1---------------1-------|----------1---------------1-------|
G|--------1---1-----------1---1-----|--------1---1-----------1---1-----|
D|------3-------3-------3-------3---|------3-------3-------3-------3---|
A|----4-----------4---4-----------4-|----3-----------3---3-----------3-|
C| chord diagramC|C|--0---------------0---------------|--4---------------4---------------|


e|----------------------------------|----------------------------------|
B|----------2---------------2-------|----------1---------------1-------|
G|--------3---3-----------3---3-----|--------1---1-----------2---2-----|
D|------1-------1-------1-------1---|------1-------1-------1-------1---|
A|----1-----------1---1-----------1-|----3-----------3---3-----------3-|
C| chord diagramC|C|--2---------------2---------------|--4---------------4---------------|


e|----------1---------------1---------|----------1---------------1---------|
B|--------3---3-----------3---3-------|--------3---3-----------3---3-------|
G|------3-------3-------3-------3-----|------1-------1-------1-------1-----|
D|----3-----------3---3-----------3---|----3-----------3---3-----------3---|
A|--1---------------1---------------1-|--1---------------1---------------1-|
C| chord diagramC|C|------------------------------------|------------------------------------|


e|----------------------------------|----------------------------------|
B|----------2---------------2-------|----------1---------------1-------|
G|--------3---3-----------3---3-----|--------1---1-----------2---2-----|
D|------1-------1-------1-------1---|------1-------1-------1-------1---|
A|----1-----------1---1-----------1-|----3-----------3---3-----------3-|
C| chord diagramC|C|--2---------------2---------------|--4---------------4---------------|