Log in

One click and you are in

Login with Facebook Login with Google

Why sign up and log in

Guitar Tabs Explorer
Cavetown bass tabs for Devil town

Bass tabs

Tuning: Standard (E A D G)


Intro:

G|---------------------------------------------------------------------------|
D|-2-2-----1-1-1-1--2-2-----1-1-1-1--2-2-----1-1-1-1--2-2-----1-1-1-1--------|
A|-----3-3--------------3-3---------------3-3-------------3-3----------------|
E|---------------------------------------------------------------------------|

Verse 1:
(play x4)

G|---------------------------------------------------------------------------|
D|---------------------------------------------------------------------------|
A|-------------------------5-5-5-5-3-3-3-3-3-3-3-3---------------------------|
E|-3-3-3-3-3-3-3-3-5-5-5-5-------------------------2-2-2-2-2-2-2-2-----------|


Chorus:

G|---------------------------------------------------------------------------|
D|---------------------------------------------------------------------------|
A|---------9-9-9-9-5-5-5-5-7-7-7-7-------------------------------------------|
E|-9-9-9-9-------------------------5-5-5-5-5-5-5-5-7-7-7-7-7-7-7-7-----------|

G|---------------------------------------------------------------------------|
D|---------------------------------------------------------------------------|
A|---------9-9-9-9-5-5-5-5-7-7-7-7-------------------------------------------|
E|-9-9-9-9-------------------------5-5-5-5-5-5-5-5-7-7-7-7-7-7-7-7-7-7-------|

Verse 2:

(play x4)
G|---------------------------------------------------------------------------|
D|---------------------------------------------------------------------------|
A|-------------------------5-5-5-5-3-3-3-3-3-3-3-3---------------------------|
E|-3-3-3-3-3-3-3-3-5-5-5-5-------------------------2-2-2-2-2-2-2-2-----------|


Chorus:
G|---------------------------------------------------------------------------|
D|---------------------------------------------------------------------------|
A|---------9-9-9-9-5-5-5-5-7-7-7-7-------------------------------------------|
E|-9-9-9-9-------------------------5-5-5-5-5-5-5-5-7-7-7-7-7-7-7-7-----------|

G|---------------------------------------------------------------------------|
D|---------------------------------------------------------------------------|
A|---------9-9-9-9-5-5-5-5-7-7-7-7-------------------------------------------|
E|-9-9-9-9-------------------------5-5-5-5-5-5-5-5-7-7-7-7-7-7-7-7-7-7-------|


Bridge:

G|---------------------------------------------------------------------------|
D|---------------------------------------------------------------------------|
A|---------9-9-5-5-7-7---------5-5-------------------------------------------|
E|-7-7-9-9-------------5-5-7-7-----7-7-5-5-----------------------------------|

(play during guitar solo)
G|---------------------------------------------------------------------------|
D|---------------------------------------------------------------------------|
A|---------------------------------------------------------------------------|
E|-7-7-5-5-7-7-5-5-7-7-5-5-7-7-5-5-------------------------------------------|


Chorus:

(Don't play until "a thousand times")
G|---------------------------------------------------------------------------|
D|---------------------------------------------------------------------------|
A|---------------------------------------------------------------------------|
E|-5-5-5-5-5-5-5-5-7-7-7-7-7-7-7-7-------------------------------------------|

G|---------------------------------------------------------------------------|
D|---------------------------------------------------------------------------|
A|---------9-9-9-9-5-5-5-5-7-7-7-7-------------------------------------------|
E|-9-9-9-9-------------------------5-5-5-5-5-5-5-5-7-7-7-7-7-7-7-7-7-7-------|

let last note ring
************************************

Almost there ...

Sign in to get your own page with links to favourite songs and more. You are just one click away...

Login with Facebook Login with Google