Log in

One click and you are in

Login with Facebook Login with Google

Why sign up and log in

Guitar Tabs Explorer
Cavetown guitar tabs for Boys will be bugs acoustic

Guitar tabs

Tuning: Standard (E A D G B E)


Intro:

e|-------0----------3--------0-0-0---1-1-|
B|-------1----------0--------0-0-0---1-1-|
G|-------0----------0---0h1--1-1-1---2-2-|
D|----2--2----------0--------2-2-2---3-3-|
A|-3-----3----0---2-2--------2-2-2---3-3-|
E|-------0------3---3--------0-0-0---1-1-| (x2)

Verse 1:

e|-------0----------3--------0-0-0---1-1-|
B|-------1----------0--------0-0-0---1-1-|
G|-------0----------0---0h1--1-1-1---2-2-|
D|----2--2----------0--------2-2-2---3-3-|
A|-3-----3----0---2-2--------2-2-2---3-3-|
E|-------0------3---3--------0-0-0---1-1-| (x4)

Interlude:

e|-------0----------3--------0-0-0---1-1-|
B|-------1----------0--------0-0-0---1-1-|
G|-------0----------0---0h1--1-1-1---2-2-|
D|----2--2----------0--------2-2-2---3-3-|
A|-3-----3----0---2-2--------2-2-2---3-3-|
E|-------0------3---3--------0-0-0---1-1-| (x1)


Verse 2:

e|-------0----------3--------0-0-0---1-1-|
B|-------1----------0--------0-0-0---1-1-|
G|-------0----------0---0h1--1-1-1---2-2-|
D|----2--2----------0--------2-2-2---3-3-|
A|-3-----3----0---2-2--------2-2-2---3-3-|
E|-------0------3---3--------0-0-0---1-1-| (x4)


Pre-chorus:

e|-2----2----1-PM-PM-1-PM-PM-1-PM-PM-1-|
B|-1----1----1-PM-PM-1-PM-PM-1-PM-PM-1-|
G|-2----2----2-PM-PM-2-PM-PM-2-PM-PM-2-|
D|-0----0----3-PM-PM-3-PM-PM-3-PM-PM-3-|
A|-----------3-PM-PM-3-PM-PM-3-PM-PM-3-|
E|-----------1-PM-PM-1-PM-PM-1-PM-PM-1-|


Chorus:

e|-------0---0--0--1--1--3--3-|
B|-------1---0--0--1--1--3--3-|
G|-------0---1--1--2--2--4--4-|
D|----2--2---2--2--3--3--5--5-|
A|-3-----3---2--2--3--3--5--5-|
E|-------0---0--0--1--1--3--3-| (x4)


Interlude:

e|-------0----------3--------0-0-0---1-1-|
B|-------1----------0--------0-0-0---1-1-|
G|-------0----------0---0h1--1-1-1---2-2-|
D|----2--2----------0--------2-2-2---3-3-|
A|-3-----3----0---2-2--------2-2-2---3-3-|
E|-------0------3---3--------0-0-0---1-1-| (x2)


Verse 3:

e|-------0----------3--------0-0-0---1-1-|
B|-------1----------0--------0-0-0---1-1-|
G|-------0----------0---0h1--1-1-1---2-2-|
D|----2--2----------0--------2-2-2---3-3-|
A|-3-----3----0---2-2--------2-2-2---3-3-|
E|-------0------3---3--------0-0-0---1-1-| (x4)

Interlude:

e|-------0----------3--------0-0-0---1-1-|
B|-------1----------0--------0-0-0---1-1-|
G|-------0----------0---0h1--1-1-1---2-2-|
D|----2--2----------0--------2-2-2---3-3-|
A|-3-----3----0---2-2--------2-2-2---3-3-|
E|-------0------3---3--------0-0-0---1-1-| (x1)


Verse 4:

e|-------0----------3--------0-0-0---1-1-|
B|-------1----------0--------0-0-0---1-1-|
G|-------0----------0---0h1--1-1-1---2-2-|
D|----2--2----------0--------2-2-2---3-3-|
A|-3-----3----0---2-2--------2-2-2---3-3-|
E|-------0------3---3--------0-0-0---1-1-| (x4)


Pre-chorus:

e|-2----2----1-PM-PM-1-PM-PM-1-PM-PM-1-|
B|-1----1----1-PM-PM-1-PM-PM-1-PM-PM-1-|
G|-2----2----2-PM-PM-2-PM-PM-2-PM-PM-2-|
D|-0----0----3-PM-PM-3-PM-PM-3-PM-PM-3-|
A|-----------3-PM-PM-3-PM-PM-3-PM-PM-3-|
E|-----------1-PM-PM-1-PM-PM-1-PM-PM-1-|


Chorus:

e|-------0---0--0--1--1--3--3-|
B|-------1---0--0--1--1--3--3-|
G|-------0---1--1--2--2--4--4-|
D|----2--2---2--2--3--3--5--5-|
A|-3-----3---2--2--3--3--5--5-|
E|-------0---0--0--1--1--3--3-| (x4)


Bridge:

e|-2----2----1-PM-PM-1-PM-PM-1-PM-PM-1-|
B|-1----1----1-PM-PM-1-PM-PM-1-PM-PM-1-|
G|-2----2----2-PM-PM-2-PM-PM-2-PM-PM-2-|
D|-0----0----3-PM-PM-3-PM-PM-3-PM-PM-3-|
A|-----------3-PM-PM-3-PM-PM-3-PM-PM-3-|
E|-----------1-PM-PM-1-PM-PM-1-PM-PM-1-|

e|-2----2----1-PM-PM-1-PM-PM-1-PM-PM-1-|
B|-1----1----1-PM-PM-1-PM-PM-1-PM-PM-1-|
G|-2----2----2-PM-PM-2-PM-PM-2-PM-PM-2-|
D|-0----0----3-PM-PM-3-PM-PM-3-PM-PM-3-|
A|-----------3-PM-PM-3-PM-PM-3-PM-PM-3-|
E|-----------1-PM-PM-1-PM-PM-1-PM-PM-1-|

e|-2----2----1-PM-PM-1-PM-PM-1-PM-PM-1-|
B|-1----1----1-PM-PM-1-PM-PM-1-PM-PM-1-|
G|-2----2----2-PM-PM-2-PM-PM-2-PM-PM-2-|
D|-0----0----3-PM-PM-3-PM-PM-3-PM-PM-3-|
A|-----------3-PM-PM-3-PM-PM-3-PM-PM-3-|
E|-----------1-PM-PM-1-PM-PM-1-PM-PM-1-|

e|-2----2----1-PM-PM-1-PM-PM-1-PM-PM-3-3-3-3-3-3-3-3-3-3-3-3-|
B|-1----1----1-PM-PM-1-PM-PM-1-PM-PM-3-3-3-3-3-3-3-3-3-3-3-3-|
G|-2----2----2-PM-PM-2-PM-PM-2-PM-PM-4-4-4-4-4-4-4-4-4-4-4-4-|
D|-0----0----3-PM-PM-3-PM-PM-3-PM-PM-5-5-5-5-5-5-5-5-5-5-5-5-|
A|-----------3-PM-PM-3-PM-PM-3-PM-PM-5-5-5-5-5-5-5-5-5-5-5-5-|
E|-----------1-PM-PM-1-PM-PM-1-PM-PM-3-3-3-3-3-3-3-3-3-3-3-3-|


Interlude:

e|-2--2--2--2--3--3--5--5-|
B|-3--3--2--2--3--3--5--5-|
G|-2--2--3--3--4--4--6--6-|
D|-0--0--4--4--5--5--7--7-|
A|-------4--4--5--5--7--7-|
E|-------2--2--3--3--5--5-| (x2)


Chorus:

e|-2--2--2--2--3--3--5--5-|
B|-3--3--2--2--3--3--5--5-|
G|-2--2--3--3--4--4--6--6-|
D|-0--0--4--4--5--5--7--7-|
A|-------4--4--5--5--7--7-|
E|-------2--2--3--3--5--5-| (x8)


************************************

| PM  Palm mute
| h   hammer on

************************************

Other versions of Boys Will Be Bugs Acoustic

Boys will be bugsChords
Boys will be bugs acoustic ukuleleChords
Boys will be bugs ukuleleChords
Boys will be bugs - introTabs

Almost there ...

Sign in to get your own page with links to favourite songs and more. You are just one click away...

Login with Facebook Login with Google