Log in

One click and you are in

Login with Facebook Login with Google

Why sign up and log in

Guitar Tabs Explorer
Cavetown guitar chords for Banana bread ukulele

Guitar chords with lyrics

Tuning: G C E A (G C E A)

Difficulty: Novice


Intro:
A|-3-----------------------|------------------------|3-----------------------|------------------------|
E|-----1---1-------1-------|----1---1-------1-------|----1---1-------1-------|----1---1-------1-------|
C|---------------------4---|1-------------------4---|--------------------4---|1-------------------4---|
G|-------------2-----------|------------2-----------|------------2-----------|------------2-----------|
A|-1-------------------1---|1h3---------1-------3---|------------------------|------------------------|
E|-----1---1-------1-------|1-----------------------|----1---5---5---5-------|----6-------3-------6---|
C|-------------------------|----------------------2-|2-------------------2---|5-----------------------|(2x)
G|-------------2---------- |2-----------------------|------------------------|--------6-------6-------|

A|-3-----------------------|3-----------------------|3-----------3-----------|3-----------3-----------|
E|-----1---1-------1-------|----1---1-------1-------|----1---1-------1---1---|----1-----------1---1---|
C|---------------------4---|--------------------4---|------------------------|--------4---------------|
G|-------------2-----------|------------2-----------|------------------------|------------------------|

A|-3-----------------------|------------------------|3-----------------------|------------------------|
E|-----1---1-------1-------|----1---1-------1-------|----1---1-------1-------|----1---1-------1-------|
C|---------------------4---|1-------------------4---|--------------------4---|1-------------------4---|
G|-------------2-----------|------------2-----------|------------2-----------|------------2-----------|

A|-1-------------------1---|1h3---------1-------3---|------------------------|------------------------|
E|-----1---1-------1-------|1-----------------------|----1---5---5---5-------|----6-------3-------6---|
C|-------------------------|----------------------2-|2-------------------1---|5-----------------------|
G|-------------2---------- |2-----------------------|------------------------|--------6-------6-------|


Verse 1:
F                                      C#aug
  You're falling further down but I've got you by a thread
F                                         C#aug
  I wrap the cord around my arms until my hands start to turn red
A#maj9               F         (A#maj9)       Dm         Gm7b5
  But it's not enough, it won't be enough to save you.. Mmm

Verse 2:
F                                             C#aug
  She's so in love with all the things I hate most about myself
F                                        C#aug
  I'm so in love with all the sounds she makes when she smiles and well
A#maj9               F      (A#maj9)           Dm
  It's a little tough to put conker shells on ice sheets
                             Gm7b5
Without breaking through and flooding the whole town


Bridge: - play pattern over vocals(or strum the chords)
A|-1-----------------------|3-----------------------|1-----------------------|3-----------------------|
E|-----1-----------1-------|----1-----------1-------|----1-----------1-------|-----1----------1-------|
C|-------------1-----------|------------2-----------|------------1-----------|------------2-----------|
G|---------2-----------2---|--------2-----------2---|--------2-----------2---|--------2-----------2---|

A|-1---8-------4---8-------|3---8-------5---8-------|1---8-------4---8-------|3---8-------3---------3-|
E|-------------------------|------------------------|------------------------|----------------1---1---|
C|-------------------------|------------------------|------------------------|------------------------|
G|---------2-----------2---|--------2-----------2---|--------2-----------2---|--------2---------------|

A#maj9   C#aug         F                Dm          A#maj9
  I hope you're alright, I didn't wanna wake up last night
         C#aug           F              Dm          A#maj9
'Cause I quite liked the dream I had of holding your hand
     C#aug     F           Dm          A#maj9             C#aug          F      F
It's funny how slowly time goes when my thoughts have been racing all this time

A|-3-----------------------|3-----------------------|3-----------3-----------|3-----------3-----------|
E|-----1---1-------1-------|----1---1-------1-------|----1---1-------1---1---|----1-----------1---1---|
C|---------------------4---|--------------------4---|------------------------|--------4---------------|
G|-------------2-----------|------------2-----------|------------------------|------------------------|


Verse 3:
F                                      C#aug
  It's alright to feel a little bit of darkness now and then
F                                             C#aug
  I know I've said it once but I still tell myself again and again
A#maj9                     F        (A#maj9)
  "You'll never be enough\

Almost there ...

Sign in to get your own page with links to favourite songs and more. You are just one click away...

Login with Facebook Login with Google