Log in

One click and you are in

Login with Facebook Login with Google

Why sign up and log in

Guitar Tabs Explorer
Cavetown bass tabs for Another one of those days

Another One Of Those Days bass tab - Cavetown

Cavetown bass tabs for Another one of those days

Bass tabs

  • Difficulty: Beginner
Tuning: Standard (E A D G)

🎸 Chorus 1:
G|-------|------|--------|------|--------|------|--------|------|
D|-------|------|--------|------|--------|------|--------|------|
A|-6--6~-|------|-3~--3~-|------|-6~--6~-|------|-3~--3~-|------|
E|-------|-3-3--|--------|-4-4--|--------|-3-3--|--------|-4-4--|

G|-----------|------|--------|------|--------|------|--------|------|
D|-----------|------|--------|------|--------|------|--------|------|
A|-6~--6/9\3-|------|-3~--3~-|------|-6~--6~-|------|-3~--3~-|------|
E|-----------|-3-3--|--------|-4-4--|--------|-3-3--|--------|-4-4~-|

Post 🎸 Chorus:
G|--------|------|--------|------|--------|------|-----------|------|
D|--------|------|--------|------|--------|------|-----------|------|
A|-6~--6~-|------|-3~--3~-|-3-3--|-6~--6~-|------|-3~--3~/5\-|-3-3--|
E|--------|-3-3~-|--------|------|--------|-3-3--|-----------|------|

🎸 Verse 2:
G|--------|------|--------|------|-----------|------|-----------|------|
D|--------|------|--------|------|-----------|------|-----------|------|
A|-6~--6~-|------|-3~--3~-|-3-3--|-----------|------|-3~--3~/6\-|-3-3--|
E|--------|-3-3--|--------|------|-11~--11~\-|-3-3--|-----------|------|

G|----|------|------|-----|---------|----------|
D|----|------|-6/8~-|-10~-|-12~-13~-|-15~-17\--|
A|----|------|------|-----|---------|----------|
E|-4~-|-4-4~-|------|-----|---------|----------|

🎸 Chorus 2:
G|----|------|----------|------|-----------|------|-----------|------|
D|----|------|----------|------|-----------|------|-----------|------|
A|-6~-|------|-3~--3/6~-|------|-6~--6/9~\-|------|-3~--3/6\3-|------|
E|----|-3-3~-|----------|-4-4~-|-----------|-3-3~-|-----------|-4-4~-|

G|--------|------|--------|------|-------|------|----------|------|
D|--------|------|--------|------|-------|------|----------|------|
A|-6~/-9\-|------|-3~--6~-|------|-6~-6~-|------|-3~-3/6\3-|------|
E|--------|-3-3~-|--------|-4-4~-|-------|-3-3~-|----------|-4-4~-|

🎸 Bridge:
G|----|------|---------|--------|---------|---------|---------|---------|---------|---------|
D|----|------|---------|--------|---------|---------|---------|---------|---------|---------|
A|-3~-|-3-3~-|-6~--6-8-|--------|-3-3-3-3-|-3-3-----|-6-6-6-8-|---------|-3-3-3-3-|-3-3-3-3-|
E|----|------|---------|-3~--3~-|---------|-----4-4-|---------|-3-3-3-3-|---------|---------|

G|---------|---------|----------|------------|---------|---------|-----------|-----------|
D|---------|---------|----------|------------|---------|---------|-----------|-----------|
A|-6-6-6-8-|---------|-6-6-6-8\-|-3-3/5\3/5\-|---------|---------|-6-6-6\-6\-|-4-4-4-4-5-|
E|---------|-3-3-3-3-|----------|------------|-4-4-4-4-|-4-4-4-4-|-----------|-----------|

G|----------|---------|-------|-------|----|------|----|------|----|-------|----|------|----|----|
D|----------|---------|-------|-------|----|------|----|------|----|-------|----|------|----|----|
A|-6-6-6-8\-|---------|-------|-------|----|------|-6~-|------|-3~-|-3--6\-|-6~-|------|-3~-|-3~-|
E|----------|-3-3-3-3-|-4/11~-|---11\-|-4~-|-4/6~-|----|-3-3~-|----|-------|----|-3-3~-|----|----|

G|----|------|-----------|----------|---------|---------|
D|----|-6/8~-|-8/10~-10~-|-10~/-12~-|-13~-15~-|-17~-20\-|
A|----|------|-----------|----------|---------|---------|
E|-4~-|------|-----------|----------|---------|---------|

🎸 Chorus 3:
G|--------|-------|----------|-------|----------|-------|----------|---------|
D|--------|-------|----------|-------|----------|-------|----------|---------|
A|-6~--6~-|-------|-3~-/-6~\-|-------|-6~-/-10\-|-------|-3~--3/6~-|-------6-|
E|--------|-3-3~--|----------|-4-4~--|----------|-3-3~--|----------|-4-4~----|

G|----------|------|--------|--------|----------|------|-------|------|
D|----------|------|--------|--------|----------|------|-------|------|
A|-6~--6/9~-|------|-3~--3~-|--------|-6~--6/9~-|------|-3~--3-|------|
E|----------|-3-3--|--------|-4-4--4-|----------|-3-3~-|-------|-4-4~-|

G|--------|------|-------|----|
D|--------|------|-------|----|
A|-6~--6~-|------|-3~--3-|-3~-|
E|--------|-3-3~-|-------|----|


************************************

| /  Slide up
| \  Slide down
| ~  Hold

************************************

Almost there ...

Sign in to get your own page with links to favourite songs and more. You are just one click away...

Login with Facebook Login with Google