Log in

One click and you are in

Login with Facebook Login with Google

Why sign up and log in

Guitar Tabs Explorer
Cathedral tabs for Magnetic hole

Guitar tabs

Piece: Magnetic Hole
Instrument: Guitar

                                  MAGNETIC HOLE
                            As recorded by Cathedral
                (From the 1996 Album SUPERNATURAL BIRTH MACHINE)

Gtr I (A chord diagramC majorC A chord diagramFF A chord diagramBb majorBb A chord diagramEb MajorEb A chord diagramG+G A chord diagramC majorC) - 'Untitled'
Gtr II (A chord diagramC majorC A chord diagramFF A chord diagramBb majorBb A chord diagramEb MajorEb A chord diagramG+G A chord diagramC majorC) - 'Untitled'
 4/4
  Gtr I
|-----------|------------|------------|----------------------|
|-----------|------------|------------|----------------------|
|-----------|------------|------------|----3h4p3h4p3h4p3h4p3-|
|-2---------|------------|-2----------|----------------------|
|------3--2-|------------|------2--0--|-1--------------------|
|-----------|-2b3r===(2)-|------------|----------------------|
|------------|------------|------------|----------------------|
|------------|------------|------------|----------------------|
|------------|------------|------------|----3h4p3h4p3h4p3h4p3-|Guit.1
|-2----------|------------|-2----------|----------------------|
|------3--2--|------------|------2--0--|-1--1h2p1h2p1h2p1h2p1-|Guit.2
|------------|-2b3r===(2)-|------------|----------------------|


|------------|------------|------------|-------|
|------------|------------|------------|-------|
|-4----------|------------|-4----------|-------|
|-2---5--4---|------------|-2----4--2--|-3-----|
|-----3--2---|-4b5r===(4)-|------2--0--|-1-----|
|------------|-2b3r===(2)-|------------|-------|


|---------------||-------------------|-----------------------|----|
|---------------||-------------------|-----------------------|----|
|---------------||-------------------|-----------------------|----|
|---------------||-------------------|-----------------------|----|
|-0-0h1p0h1p0h1-||-0-----1-0h1p0h1p0-|-0---4-3-1-0h1p0h1p0h1-|----|
|---------------||---2-2-------------|---2-------------------|----|

                          Gtr.II Enters here
|-------------------|-----------------------|----|
|-------------------|-----------------------|----|
|-------------------|-----------------------|----|
|-------------------|-----------------------|----|
|-0-----1-0h1p0h1p0-|-0---5-3-1-0-1p0h1p0h1-|----|
|---2-2-------------|---2-------------------|----|

  Guitar Solo over this riff
|-------------------|-----------------------|----|
|-------------------|-----------------------|----|
|-------------------|-----------------------|----|
|-------------------|-----------------------|----|
|-0-----1-0h1p0h1p0-|-0---4-3-1-0h1p0h1p0h1-|----|
|---2-2-------------|---2-------------------|----|

                                     Play 4x
|-------------------|-----------------------|----|
|-------------------|-----------------------|----|
|-------------------|-----------------------|----|
|-------------------|-----------------------|----|
|-0-----1-0h1p0h1p0-|-0---5-3-1-0-1p0h1p0h1-|----|
|---2-2-------------|---2-------------------|----|


 In this magnetic hole...
|-------------------|-----------------------|----|
|-------------------|-----------------------|----|
|-------------------|-----------------------|----|
|-------------------|-----------------------|----|
|-0-----1-0h1p0h1p0-|-0---4-3-1-0h1p0h1p0h1-|----|
|---2-2-------------|---2-------------------|----|

                                     Play 8x
|-------------------|-----------------------|----|
|-------------------|-----------------------|----|
|-------------------|-----------------------|----|
|-------------------|-----------------------|----|
|-0-----1-0h1p0h1p0-|-0---5-3-1-0-1p0h1p0h1-|----|
|---2-2-------------|---2-------------------|----|


|-------------------------|----------------------|---------------------|
|-------------------------|----------------------|---------------------|
|-------------------------|----------------------|---------2h3p2h3p2h3-|
|---------1-0h1p0h1p0h1p0-|-0--------4-3h4p3h4p3-|-3-------------------|
|-0-----------------------|---2p0-2--------------|---5px-5-------------|
|---2p0-2-----------------|----------------------|---------------------|

                     Souls shattered...
|-------------|     |-----------|------|--------------|----------|
|-------------|     |-----------|------|--------------|----------|
|-2-----------|     |-----------|------|--------------|----------|
|---4px-4/----|     |--4----4-2-|------|-9------9S11--|-7--7S6---|
|-------------|     |--2----2-0-|-4----|-7----9-7S=9--|-5--5S4-0-|
|-------------|     |-----------|-2----|------7-------|----------|

  No medication or shrink...
|----------|--------|--------------|----------|-----|
|----------|--------|--------------|----------|-----|
|----------|--------|--------------|----------|-----|
|-4----4-2-|--------|-9-------9S11-|-7--------|-----|
|-2----2-0-|-4------|-7----9--7S=9-|-5--------|-----|
|----------|-2------|------7-------|----------|--5--|


Skull of humanity...
|-------------------|-----------------------|----|
|-------------------|-----------------------|----|
|-------------------|-----------------------|----|
|-------------------|-----------------------|----|
|-0-----1-0h1p0h1p0-|-0---4-3-1-0h1p0h1p0h1-|----|
|---2-2-------------|---2-------------------|----|

                                     Play 8x
|-------------------|-----------------------|----|
|-------------------|-----------------------|----|
|-------------------|-----------------------|----|
|-------------------|-----------------------|----|
|-0-----1-0h1p0h1p0-|-0---5-3-1-0-1p0h1p0h1-|----|
|---2-2-------------|---2-------------------|----|


|-------------------------|----------------------|---------------------|
|-------------------------|----------------------|---------------------|
|-------------------------|----------------------|---------2h3p2h3p2h3-|
|---------1-0h1p0h1p0h1p0-|-0--------4-3h4p3h4p3-|-3-------------------|
|-0-----------------------|---2p0-2--------------|---5px-5-------------|
|---2p0-2-----------------|----------------------|---------------------|

                     Eyes hollow i cannot see...
|-------------|     |-----------|------|--------------|----------|
|-------------|     |-----------|------|--------------|----------|
|-2-----------|     |-----------|------|--------------|----------|
|---4px-4/----|     |--4----4-2-|------|-9------9S11--|-7--7S6---|
|-------------|     |--2----2-0-|-4----|-7----9-7S=9--|-5--5S4-0-|
|-------------|     |-----------|-2----|------7-------|----------|


 No god or shrink can cure...
|----------|--------|--------------|----------|-----|
|----------|--------|--------------|----------|-----|
|----------|--------|--------------|----------|-----|
|-4----4-2-|--------|-9-------9S11-|-7--------|-----|
|-2----2-0-|-4------|-7----9--7S=9-|-5--------|-----|
|----------|-2------|------7-------|----------|--5--|


Into this hole we sink     Play 4x
|-------------------|------------|       |----------|-----------|----|
|-------------------|------------|       |----------|-8p7-------|----|
|---------------9S8-|-x-9S8------|       |----------|-----7-----|----|
|-9S11-11-11-11-7S6-|-x-7S6--9-9-|       |-7--------|-------7---|----|
|-7S=9--9--9--9-----|--------7-7-|       |-5--------|-----------|----|
|-------------------|------------|       |----------|-----------|----|


|-----------|------------|----|
|-----------|------------|----|
|-----------|------------|----|
|-6/--------|------------|----|
|-4/--------|---4--5--6--|----|
|-----------|------------|----|



Solo begins here
  ~                       ~
|----------|------------|----------|--------|
|----------|------------|----------|--------|
|----------|------------|----------|--------|
|----------|------------|----------|--------|
|-7--------|-(7)--------|-4--------|-(4)----|
|----------|------------|----------|--------|


After several measures this is the rhythm til the song ends
  ~                       ~
|----------|------------|----------|--------|
|----------|------------|----------|--------|
|----------|------------|----------|--------|
|----------|------------|----------|--------|
|-7--------|-(7)--------|-4--------|-(4)----|
|----------|------------|----------|--------|


  ~                       ~~~~~~~~~~~~~
|----------|------------|----------|------|
|----------|------------|----------|------|
|----------|------------|----------|------|
|----------|------------|----------|------|
|-3--------|-(3)--------|----------|------|
ⓘ Guitar tab for 'Magnetic Hole' by Cathedral, a doom metal band formed in 1989 from Coventry, UK. They are no longer active.

Almost there ...

Sign in to get your own page with links to favourite songs and more. You are just one click away...

Login with Facebook Login with Google