Log in

One click and you are in

Login with Facebook Login with Google

Why sign up and log in

Guitar Tabs Explorer
Cathedral tabs for Corpsecycle

Guitar tabs

Piece: Corpsecycle
Instrument: Guitar

                                   CORPSECYCLE
                            As recorded by Cathedral
             (From the 2005 Album THE GARDEN OF UNEARTHLY DELIGHTS)

Gtr I (A chord diagramBB A chord diagramE MajorE A chord diagramA augmentedA A chord diagramD MajorD A chord diagramF#F# A chord diagramBB) - 'Untitled'
Gtr II (A chord diagramBB A chord diagramE MajorE A chord diagramA augmentedA A chord diagramD MajorD A chord diagramF#F# A chord diagramBB) - 'Untitled'

 4/4
  Gtr I
|----|----|-----|----||----|----|-----|----|----|
|----|----|-----|----||----|----|-----|----|----|
|----|----|-----|----||----|----|-----|----|----|
|-9--|-7--|-9/--|----||-9--|-7--|-9/--|----|----|
|-7--|-5--|-7/--|-7--||-7--|-5--|-7/--|-7--|----|
|----|----|-----|-5--||----|----|-----|-5--|----|


 Corpsecycle!
                                                               Play 2x
|----------------|----------------|----------------|------------------|
|----------------|----------------|----------------|------------------|
|----------------|------------4---|----------------|------------------|
|------6---6-7-9-|------4---7---7-|------6---6-7-9-|-9S12-11-9-11-9---|
|-7--7---7-------|-5--5---5-------|-7--7---7-------|------------------|
|----------------|----------------|----------------|------------------|


|--------------|----------|
|--------------|----------|
|--------------|----------|
|-7S9-7--6S7-6-|----------|
|-5S7-5--4S5-4-|-5--7-5-2-|
|--------------|-3--5-3-0-|

     Living...          Play 3x
|---------------|---------------|----|
|---------------|---------------|----|
|-9-------------|---------------|----|
|-9-------------|---------------|----|
|-7-2-2-2-2-2-2-|-2-2-2-2-2-2-2-|----|
|-0-0-0-0-0-0-0-|-0-0-0-0-0-0-0-|----|

|--------------|----------|
|--------------|----------|
|--------------|----------|
|-7S9-7--6S7-6-|----------|
|-5S7-5--4S5-4-|-5--7-5-2-|
|--------------|-3--5-3-0-|

     Not too far...         Play 3x
|---------------|---------------|----|
|---------------|---------------|----|
|-9-------------|---------------|----|
|-9-------------|---------------|----|
|-7-2-2-2-2-2-2-|-2-2-2-2-2-2-2-|----|
|-0-0-0-0-0-0-0-|-0-0-0-0-0-0-0-|----|

|--------------|----------|
|--------------|----------|
|--------------|----------|
|-7S9-7--6S7-6-|----------|
|-5S7-5--4S5-4-|-5--7-5-2-|
|--------------|-3--5-3-0-|


 Corpsecycle        is lifecycle
|----------|----------|---------|---------|
|----------|----------|---------|---------|
|----------|----------|---------|---------|
|----------|----------|---------|---------|
|-4-4--2-4-|-5-5--4-5-|-6-6---6-|-5-5---5-|
|-2-2--0-2-|-3-3--2-3-|-4-4---4-|-3-3---3-|

Lifecycle         is corpsecycle
|----------|----------|---------|------------------|
|----------|----------|---------|------------------|
|----------|----------|---------|----7-7-7-7p6-----|
|----------|----------|---------|--------------7---|
|-4-4--2-4-|-5-5--4-5-|-6-6---6-|-7----------------|
|-2-2--0-2-|-3-3--2-3-|-4-4---4-|-5----------------|


 1.Life is...
 2.Society...                                                  Play 2x
|----------------|----------------|----------------|------------------|
|----------------|----------------|----------------|------------------|
|----------------|------------4---|----------------|------------------|
|------6---6-7-9-|------4---7---7-|------6---6-7-9-|-9S12-11-9-11-9---|
|-7--7---7-------|-5--5---5-------|-7--7---7-------|------------------|
|----------------|----------------|----------------|------------------|


 Walking corpses...          Play 3x
|---------------|---------------|----|
|---------------|---------------|----|
|-9-------------|---------------|----|
|-9-------------|---------------|----|
|-7-2-2-2-2-2-2-|-2-2-2-2-2-2-2-|----|
|-0-0-0-0-0-0-0-|-0-0-0-0-0-0-0-|----|

|--------------|----------|
|--------------|----------|
|--------------|----------|
|-7S9-7--6S7-6-|----------|
|-5S7-5--4S5-4-|-5--7-5-2-|
|--------------|-3--5-3-0-|

     Utopian is...         Play 3x
|---------------|---------------|----|
|---------------|---------------|----|
|-9-------------|---------------|----|
|-9-------------|---------------|----|
|-7-2-2-2-2-2-2-|-2-2-2-2-2-2-2-|----|
|-0-0-0-0-0-0-0-|-0-0-0-0-0-0-0-|----|


|--------------|----------|
|--------------|----------|
|--------------|----------|
|-7S9-7--6S7-6-|----------|
|-5S7-5--4S5-4-|-5--7-5-2-|
|--------------|-3--5-3-0-|


Corpsecycle        is lifecycle
|----------|----------|---------|---------|
|----------|----------|---------|---------|
|----------|----------|---------|---------|
|----------|----------|---------|---------|
|-4-4--2-4-|-5-5--4-5-|-6-6---6-|-5-5---5-|
|-2-2--0-2-|-3-3--2-3-|-4-4---4-|-3-3---3-|

 Lifecycle         is corpsecycle
|----------|----------|---------|------------------|
|----------|----------|---------|------------------|
|----------|----------|---------|----7-7-7-7p6-----|
|----------|----------|---------|--------------7---|
|-4-4--2-4-|-5-5--4-5-|-6-6---6-|-7----------------|
|-2-2--0-2-|-3-3--2-3-|-4-4---4-|-5----------------|


 1.Life is...
 2.Society...                                                  Play 2x
|----------------|----------------|----------------|-------------------|
|----------------|----------------|----------------|-------------------|
|----------------|------------4---|----------------|-------------------|
|------6---6-7-9-|------4---7---7-|------6---6-7-9-|-9S12-11-9-11-9-9--|
|-7--7---7-------|-5--5---5-------|-7--7---7-------|-------------------|
|----------------|----------------|----------------|-------------------|

                                    Play 3x
||--------------------|--------------------||---------------------|----|
||o-------------------|-------------------o||---------------------|----|
||--------------------|--------------------||----------7----------|----|
||--9-9-9-9--12S13S12-|-9--12-14S16-14-14--||-9-9-9-9--5-7-9-9/---|----|
||o-7-7-7-7--10S11S10-|-7--10-12S14-12-12-o||-7-7-7-7----5-7-7/---|----|
||--------------------|--------------------||---------------------|----|



 3.Choose...                                                   Play 3x
|----------------|----------------|----------------|------------------|
|----------------|----------------|----------------|------------------|
|----------------|----------------|----------0-2---|------------------|
|----4---4-5-7---|----4---4-5-7---|----4-2-4-------|-----0-1-3-1-0----|
|-5----5-------5-|-3----3-------3-|-2------------2-|-1--------------1-|
|----------------|----------------|----------------|------------------|


 4.Die...                                                     Corpsecycle
|----------------|----------------|----------------|-------------|
|----------------|----------------|----------------|-------------|
|----------------|----------------|----------------|-------------|
|----4---4-5-7---|----4---4-5-7---|-4--------------|-3-3-x-3-3---|
|-5----5-------5-|-3----3-------3-|-2--------------|-1-1-x-1-1---|
|----------------|----------------|----------------|-------------|


Rhythm under the solo

       Play 4x        Play 2x        Play 2x        Play 2x        Play 2x
|-------------||-------------||-------------||-------------||-------------|
|-------------||-------------||-------------||-------------||-------------|
|-------------||-------------||-------------||-------------||-------------|
|-----3-3h5-3-||-----3-3h5-3-||-----3-3h5-3-||-----3-3h5-3-||-----3-3h5-3-|
|-0-0---------||-4-4---------||-3-3---------||-2-2---------||-1-1---------|
|-------------||-------------||-------------||-------------||-------------|

      Play 2x         Play 2x        Play 2x        Play 2x        Play 2x (solo ends)
|-------------||-------------||-------------||-------------||-------------|
|-------------||-------------||-------------||-------------||-------------|
|-------------||-------------||-------------||-------------||-------------|
|-----3-3h5-3-||-----3-3h5-3-||-----3-3h5-3-||-----3-3h5-3-||-0-0-3-3h5-3-|
|-0-0---------||-------------||-------------||-------------||-------------|
|-------------||-3-3---------||-1-1---------||-0-0---------||-------------|


|---------|------------|---------|----------------|----|
|---------|------------|---------|----------------|----|
|-------5-|-7-5--------|-------5-|-7-5------------|----|
|-7--5--3-|-5-3-5-7/---|-7--5--3-|-5-3-5-7--------|----|
|-5--3----|-----3-5/---|-5--3----|-----3-5--------|----|
|---------|------------|---------|----------3-4-5-|----|

|---------|---------------||---------|----------------|----|
|---------|---------------||---------|----------------|----|
|-------5-|-7-5-----------||-------5-|-7-5------------|----|
|-7--5--3-|-5-3-5-7--7-7/-||-7--5--3-|-5-3-5-7--------|----|
|-5--3----|-----3-5--5-5/-||-5--3----|-----3-5--------|----|
|---------|---------------||---------|----------3-4-5-|----|

                                             Play 2x
|-------------|----------|-------------|------------|----|
|-------------|----------|-------------|------------|----|
|-------------|----------|-------------|------------|----|
|-------------|----------|-------------|------------|----|
|-------5-----|----------|-------5-----|------------|----|
|-5-6-7---0-0-|-5-6-7-0--|-5-6-7---0-0-|-5-6-7-6--5-|----|

 Guit.I
|-------|-------|-------|---------------|-----------------|---------------|----------------|
|-------|-------|-------|---------------|-----------------|---------------|----------------|
|-------|-------|-------|---------------|-----------------|---------------|----------------|
|-7-7---|-------|-------|---------------|-----------------|---------------|----------------|
|-5-5---|-2-2---|-5-5---|-7-7-7-7-7-7-7-|-7-7-7-7-7-7-7-7-|7-7-7-7-7-7-7-7|7-7-7-7-7-7-7-7-|
|-5-5---|-0-0---|-3-3---|-5-5-5-5-5-5-5-|-5-5-5-5-5-5-5-5-|5-5-5-5-5-5-5-5|5-5-5-5-5-5-5-5-|
|
|Guit.II
|-------|-------|-------|---------------||----------------|---------------|----------------|
|-------|-------|-------|---------------||----------------|---------------|----------------|
|-------|-------|-------|---------------||----------------|---------------|----------------|
|-------|-------|-------|---------------||----------------|-7s9-7---6s7-6-|----------------|
|-------|-------|-------|---------------||----------------|-5s7-5---4s5-4-|-5--7-5-2-------|
|-------|-------|-------|---------------||----------------|---------------|-3--5-3-0-------|


 The generations...          Play 3x
|---------------|---------------|----|
|---------------|---------------|----|
|-9-------------|---------------|----|
|-9-------------|---------------|----|
|-7-2-2-2-2-2-2-|-2-2-2-2-2-2-2-|----|
|-0-0-0-0-0-0-0-|-0-0-0-0-0-0-0-|----|

|--------------|----------|
|--------------|----------|
|--------------|----------|
|-7S9-7--6S7-6-|----------|
|-5S7-5--4S5-4-|-5--7-5-2-|
|--------------|-3--5-3-0-|


Corpsecycle        is          lifecycle
|----------|----------|---------|---------|
|----------|----------|---------|---------|
|----------|----------|---------|---------|
|----------|----------|---------|---------|
|-4-4--2-4-|-5-5--4-5-|-6-6---6-|-5-5---5-|
|-2-2--0-2-|-3-3--2-3-|-4-4---4-|-3-3---3-|

 Lifecycle         is corpsecycle
|----------|----------|---------|------------------|
|----------|----------|---------|------------------|
|----------|----------|---------|----7-7-7-7p6-----|
|----------|----------|---------|--------------7---|
|-4-4--2-4-|-5-5--4-5-|-6-6---6-|-7----------------|
|-2-2--0-2-|-3-3--2-3-|-4-4---4-|-5----------------|


 1.Life is...
 2.Society...                                                  Play 2x
|----------------|----------------|----------------|------------------|
|----------------|----------------|----------------|------------------|
|----------------|------------4---|----------------|------------------|
|------6---6-7-9-|------4---7---7-|------6---6-7-9-|-9S12-11-9-11-9---|
|-7--7---7-------|-5--5---5-------|-7--7---7-------|------------------|
|----------------|----------------|----------------|------------------|


 1.Life has...
 2.Society...                                                  Play 2x
|----------------|------------------|----------------|------------------|
|----------------|------------------|----------------|------------------|
|----------------|----------4-------|----------------|------------------|
|------6---6-7-9-|------4-----------|------6---6-7-9-|-9S12-11-9-11-9---|
|-7--7---7-------|-5--5---5---7p6-7-|-7--7---7-------|------------------|
|----------------|------------------|----------------|------------------|


 Acoustic guitar
|--8-----|-------------8-8-|------------*|
|--9-----|---------9-----9-|------------*|
|--8-----|----8------8-----|----8-------*|
|-10-----|-10---10---------|-10---10----*|
|--8-----|-----------------|------------*|
ⓘ Guitar tab for 'Corpsecycle' by Cathedral, a doom metal band formed in 1989 from Coventry, UK. They are no longer active.

Almost there ...

Sign in to get your own page with links to favourite songs and more. You are just one click away...

Login with Facebook Login with Google