Log in

One click and you are in

Login with Facebook Login with Google

Why sign up and log in

Guitar Tabs Explorer
Eva Cassidy tabs for Autumn leaves

Guitar tabs

Autumn Leaves from Eva Cassidy’s Songbird.
Transcribed by Mikael Wämundson (mikael.wamundson@home.se)


Intro

|-1--0-------|
|-------3--1-|
|------------|
|------------|
|------------|
|------------|
|----------------------0-|--------------------------|
|-0--------0--0--1--3----|-3-----------3--------1-0-|
|----0--2----------------|-------0-----------0------|
|------------------------|----2-----2-----0---------|
|----------------0--2----|-3-----------2------------|
|-3-----------3----------|--------------------------|


|-------------------------|-------------1----------|
|-1-----0-1----0----------|----------1--------1----|
|-------0------------0----|------------------------|
|----2------2-----2-----2-|-------1--------1-----1-|
|-0-----------------------|----3-------------------|
|--------------3----------|-1----------------------|


|-------------0----------|-------0----------------|
|-------------------0----|-------1--1--1/3--------|
|----------1-----------1-|-------0----------0---0-|
|-------0----------------|----2--------2/4----4---|
|----2-----------2-------|-0----------------------|
|-0----------------------|------------------------|

|-------0----------------|
|-------1----------------|
|----------0-------------|
|----2-------------------|
|-0-----------0----------|
|------------------------|  End of intro


||--1-----------1----------|------------------------|
||~-------1-----------1----|-0-----------1-----3----|
||-----2-----2-----2-----2-|-------0----------------|
||--0-----------0----------|----0-----0-----0-----0-|
||~------------------------|-------------0-----2----|
||-------------------------|-3----------------------|


|------------------------|------------------------|
|----------1-------------|-------1-----------1----|
|-------0--------0-----0-|----2-----2-----2-----2-|
|----2--------0-----2----|-3-----------3----------|
|-3----------------------|------------------------|
|------------------------|------------------------|


|------------------------|------------------------|
|-------1-----------1----|------------------------|
|----2-----2-----2-----2-|----------1-----------1-|
|-0-----------0----------|-------0-----------0----|
|------------------------|----2-----------2-------|
|------------------------|-0-----------0----------|


|--------------------------|-------0------------------|
|-------------1/3----------|-------1--1--1/3----------|
|-------2----------0-----0-|-------0----------0-----0-|
|----2-----2--2/4-----4----|----2--------2/4-----4----|
|-0------------------------|-0------------------------|
|--------------------------|--------------------------|


|-------------1----------|------------------------|
|-------1-----------1----|-0-----------1-----3----|
|----2-----2-----2-----2-|-------0----------------|
|-0-----------0----------|----0-----0-----0-----0-|
|-------------------0----|-------------0-----2----|
|------------------------|-3----------------------|


|------------------------|------------------------|
|----------1-------------|-------1-----------1----|
|-------0--------0-----0-|----2-----2-----2-----2-|
|----2--------0-----2----|-3-----------3----------|
|-3----------------------|------------------------|
|------------------------|------------------------|


|------------------------|------------------------|
|-------1-----------1----|------------------------|
|----2-----2-----2-----2-|----------1-----1-------|
|-0-----------0----------|-------0-----0--------0-|
|------------------------|----2-------------------|
|------------------------|-0-----------------0----|


|--------------------------|-------0------------------|
|-------------1/3----------|-------1--1--1/3----------|
|-------2----------0-----0-|-------0----------0-----0-|
|----2-----2--2/4-----4----|----2--------2/4-----4----|
|-0------------------------|-0------------------------|
|--------------------------|--------------------------|


|-------------0----------|------------------------|
|-------------------0----|-------0-----------0----|
|----------1--------2----|-------1-----2----------|
|-------0----------------|----0-----0-----0-----0-|
|----2-----------2-----2-|-------------0-----2----|
|-0----------------------|-0----------------------|


|--------------------------|-------0------------------|
|-------------1/3----------|-------1--1--1/3----------|
|-------2----------0-----0-|-------0----------0-----0-|
|----2-----2--2/4-----4----|----2--------2/4-----4----|
|-0------------------------|-0------------------------|
|--------------------------|--------------------------|


|-------------1----------|------------------------|
|-------1-----------1----|-0-----------1-----3----|
|----2-----2-----2-----2-|-------0----------------|
|-0-----------0----------|----0-----0-----0-----0-|
|-------------------0----|-------------0-----2----|
|------------------------|-3----------------------|


|------------------------|------------------------|
|----------1-------------|-------1----------------|
|-------0--------0-----0-|----2-----2-------------|
|----2--------0-----2----|-3-----------3----------|
|-3----------------------|------------------------|
|------------------------|------------------------|

*
|-1-----------1----------|------------------------|
|-------1-----------1----|-0----------------------|
|----2-----2-----2-----2-|----------1-----------1-|
|-0-----------0----------|-------0-----------0----|
|------------------------|----2-----------2-------|
|------------------------|-0-----------0----------|


|------------------------|------------------------|
|------------------------|----------1-------------|
|-------2-----------2----|-2-----2-----------2----|
|----2-----2-----2-----2-|----2-----------2-----2-|
|-0----------------------|------------------------|
|-------------3----------|-2-----------2----------|


|------------------------|------------------------|
|----------------------1-|----------0-----------0-|
|----------2-------------|------------------------|
|-------1-----------1----|-------0-----------0----|
|----3-----------3-------|----2-----------2-------|
|-1-----------1----------|-0-----------0----------|


|--------------------------|-------0-------------------||
|-------------1/3----------|-------1--1--1/3----------•||
|-------2----------0-----0-|-------0----------0-----0--||
|----2-----2--2/4-----4----|----2--------2/4-----4-----||
|-0------------------------|-0------------------------•||
|--------------------------|---------------------------|| 2:nd time go
to *


The ending is a bit different from how I’ve tabbed it.
Listen to the recording!

Other versions of Autumn Leaves

Autumn leavesChords

Almost there ...

Sign in to get your own page with links to favourite songs and more. You are just one click away...

Login with Facebook Login with Google