Log in

One click and you are in

Login with Facebook Login with Google

Why sign up and log in

Guitar Tabs Explorer
Cassia guitar tabs for Sink

Guitar tabs

Tuning: Standard (E A D G B E)


Intro:

e|-12/14-12------------------------------------------------------------------|
B|----------14-12/14-12------------------------------10----12----------------|
G|----------------------14-11-14-11--9--6--9--6--4---11----11----------------|
D|----------------------0--0--0--0---0--0--0--0--0---0-----0-----------------|
A|---------------------------------------------------12----------------------|
E|---------------------------------------------------------------------------|

e|---12---9------------------------------------------------------------------|
B|---14---10--10---10---12/14--\12--p10----12--------------------------------|
G|---14---11--9----11---11/13--\11-----11--11--------------------------------|
D|---14---11--11---0----0-/0---------------0---------------------------------| x2
A|---12---9---9----12--------------------------------------------------------|
E|---------------------------------------------------------------------------|


Verse 1:

e|---5---10------------------------------------------------------------------|
B|---5---10--------10----12/14\12p10---------10----10------------------------|
G|---6---11-----11----11-------------11---11----11----11---------------------|
D|---7---12---0-------------------------0------------------------------------|
A|---7---12------------------------------------------------------------------|
E|---5---10------------------------------------------------------------------|

e|---5---10------------------------------------------------------------------|
B|---5---10--------10----10--------------10----12p10-------------------------|
G|---6---11-----11----11----11--------11----11--------11---------------------|
D|---7---12---0--------------------0-----------------------------------------|
A|---7---12------------------------------------------------------------------|
E|---5---10------------------------------------------------------------------|

e|---5---10------------------------------------------------------------------|
B|---5---10--------10----12/14\12p10---------10----10h12p10------------------|
G|---6---11-----11----11-------------11---11----11----------11---------------|
D|---7---12---0-------------------------0------------------------------------|
A|---7---12------------------------------------------------------------------|
E|---5---10------------------------------------------------------------------|

e|---5---2-------------------------------------------------------------------|
B|---5---2---10----12-12-----------------------------------------------------|
G|---6---2---11----11-11-----------------------------------------------------|
D|---7---2---0-----0--0------------------------------------------------------|
A|---7---4---12--------------------------------------------------------------|
E|---5---2-------------------------------------------------------------------|


Chorus:

e|---12---9------------------------------------------------------------------|
B|---14---10--10---10--------------------------------------------------------|
G|---14---11--9----11--------------------------------------------------------|
D|---14---11--11---0---------------------------------------------------------| x2
A|---12---9---9----12--------------------------------------------------------|
E|---------------------------------------------------------------------------|


Verse 2:

e|---5---10------------------------------------------------------------------|
B|---5---10--------10----12/14\12p10---------10----10------------------------|
G|---6---11-----11----11-------------11---11----11----11---------------------|
D|---7---12---0-------------------------0------------------------------------|
A|---7---12------------------------------------------------------------------|
E|---5---10------------------------------------------------------------------|

e|---5---10----------------------------------------------------------(17)-(14)-------------|
B|---5---10------------------------------10-----10------------10---------------(17)-(14)---|
G|---6---11---9h11p9------------------11----11-----11-11---11----11------------------------|
D|---7---12----------11--9h11p9-----0--------------------0---------------------------------|
A|---7---12---------------------12---------------------------------------------------------|
E|---5---10--------------------------------------------------------------------------------|

e|---5---10------------------------------------------------------------------|
B|---5---10---10---12--------------------------------------------------------|
G|---6---11---11---11--------------------------------------------------------|
D|---7---12---0----0---------------------------------------------------------|
A|---7---12---12-------------------------------------------------------------|
E|---5---10------------------------------------------------------------------|

e|---5---2-------------------------------------------------------------------|
B|---5---2---10----12-12-----------------------------------------------------|
G|---6---2---11----11-11-----------------------------------------------------|
D|---7---2---0-----0--0------------------------------------------------------|
A|---7---4---12--------------------------------------------------------------|
E|---5---2-------------------------------------------------------------------|


Chorus:

e|---12---9------------------------------------------------------------------|
B|---14---10--10---10--------------------------------------------------------|
G|---14---11--9----11--------------------------------------------------------|
D|---14---11--11---0---------------------------------------------------------| x2
A|---12---9---9----12--------------------------------------------------------|
E|---------------------------------------------------------------------------|


Bridge:

e|--5---7---9---9---2--2--9---9---2---2---5---7------------------------------|
B|--5---7---10--10--2--2--10--10--2---2---5---7------------------------------|
G|--6---7---9---9---2--2--9---9---2---2---6---7------------------------------|
D|--7---9---11--11--2--2--11--11--2---2---7---9------------------------------|
A|--7---9---9---9---4--4--9---9---4---4---7---9------------------------------|
E|--5---7-----------2--2----------2---2---5---7------------------------------|

e|---12---9------------------------------------------------------------------|
B|---14---10--10---10--------------------------------------------------------|
G|---14---11--9----11--------------------------------------------------------|
D|---14---11--11---0---------------------------------------------------------| x2
A|---12---9---9----12--------------------------------------------------------|
E|---------------------------------------------------------------------------|


Chorus:

e|---12---9------------------------------------------------------------------|
B|---14---10--10---10--------------------------------------------------------|
G|---14---11--9----11--------------------------------------------------------|
D|---14---11--11---0---------------------------------------------------------|
A|---12---9---9----12--------------------------------------------------------|
E|---------------------------------------------------------------------------|

Stab the A chord diagramA majorA chord lots on the final time.
e|---12--(0)-----------------------------------------------------------------|
B|---14--(0)-----------------------------------------------------------------|
G|---14---2------------------------------------------------------------------|
D|---14---4------------------------------------------------------------------|
A|---12---0------------------------------------------------------------------|
E|---------------------------------------------------------------------------|


************************************

| /    Slide up
| p    Pull-off
| \    Slide down
| h    Hammer-on
| (n)  Ghost note

************************************

Almost there ...

Sign in to get your own page with links to favourite songs and more. You are just one click away...

Login with Facebook Login with Google