Log in

One click and you are in

Login with Facebook Login with Google

Why sign up and log in

Guitar Tabs Explorer
Caspian bass tabs for Dust and disquiet

Bass tabs

CASPIAN - DUST AND DISQUIET
in 6/8

 0:00
G|------------|------------|------------|------------|------------|------------|------------|------------|
D|10----8-----|8-----8----/|10---/3----/|6-----6----/|10----8-----|8-----8----/|10---/3----/|6-----6----/|
A|------------|------------|------------|------------|------------|------------|------------|------------|
E|------------|------------|------------|------------|------------|------------|------------|------------|

 0:28
G|------------|------------|------------|------------|------------|------------|------------|------------|
D|10----8-----|8-----8----/|10---/3----/|6-----6----/|10----8-----|8-----8----/|10---/3----/|6-----6----/|
A|------------|------------|------------|------------|------------|------------|------------|------------|
E|------------|------------|------------|------------|------------|------------|------------|------------|

 0:58
G|------------|------------|------------|------------|------------|------------|------------|------------|
D|10----8-----|8-----8----/|10---/3----/|6-----6----/|10----8-----|8-----8----/|10---/3----/|6-----6----/|
A|------------|------------|------------|------------|------------|------------|------------|------------|
E|------------|------------|------------|------------|------------|------------|------------|------------|

 1:27
G|------------|------------|------------|------------|------------|------------|------------|------------|
D|10----8-----|8-----8----/|10---/3----/|6-----6----/|10----8-----|8-----8----/|10---/3----/|6-----6-----|
A|------------|------------|------------|------------|------------|------------|------------|------------|
E|------------|------------|------------|------------|------------|------------|------------|------------|

 1:56
G|------------|------------|------------|------------|------------|------------|------------|------------|
D|6-----------|10----------|8-----------|8-----------|6-----------|10----------|8-----------|8-----------|
A|------------|------------|------------|------------|------------|------------|------------|------------|
E|------------|------------|------------|------------|------------|------------|------------|------------|

 2:25
G|------------|------------|------------|------------|------------|------------|------------|------------|
D|10----8-----|8-----8----/|10---/3----/|6-----------|10----8-----|8-----8----/|10---/3----/|6-----------|
A|------------|------------|------------|------------|------------|------------|------------|------------|
E|------------|------------|------------|------------|------------|------------|------------|------------|

 2:54
G|------------|------------|------------|------------|------------|------------|------------|------------|
D|10----8-----|8-----8----/|10---/3----/|6-----------|10----8-----|8-----8----/|10---/3----/|6-----------|
A|------------|------------|------------|------------|------------|------------|------------|------------|
E|------------|------------|------------|------------|------------|------------|------------|------------|

 3:24
G|------------|------------|------------|------------|------------|------------|------------|------------|
D|6-----------|10----------|8-----------|8-----------|6---6-6---6-|10--1010--10|8---8-8---8-|8---8-8---8-|
A|------------|------------|------------|------------|------------|------------|------------|------------|
E|------------|------------|------------|------------|------------|------------|------------|------------|

 3:53
G|------------|------------|------------|------------|------------------------------------------------|
D|6--66-6--66-|8--88-8--88-|6--66-6--66-|6--66-6--66-|10----------------------------------------------|
A|------------|------------|------------|------------|------------------------------------------------|
E|------------|------------|------------|------------|------------------------------------------------|

 4:25
G|------------|------------|------------|------------|------------|------------|------------|------------|
D|------------|------------|8-----------|------------|------------|6-----------|------------|------------|
A|8-----------|6-----------|------------|------------|8-----------|------------|6-----------|8-----------|
E|------------|------------|------------|------------|------------|------------|------------|------------|

 4:54
G|------------|------------|------------|------------|------------|------------|------------|------------|
D|------------|------------|8-----------|------------|------------|6-----------|------------|------------|
A|8-----------|6-----------|------------|------------|8-----------|------------|6-----------|8-----------|
E|------------|------------|------------|------------|------------|------------|------------|------------|

 5:24
G|------------|------------|------------|------------|------------|------------|------------|------------|
D|------------|------------|8-----------|8-----8-----|------------|6-----------|------------|------------|
A|8-----------|6-----------|------------|------------|8-----------|------------|6-----------|8-----------|
E|------------|------------|------------|------------|------------|------------|------------|------------|

 5:53
G|------------|------------|------------|------------|------------|------------|------------|------------|
D|------------|------------|8-----------|8-----8-----|------------|6-----------|------------|------------|
A|8-----------|6-----------|------------|------------|8-----------|------------|6-----------|8-----------|
E|------------|------------|------------|------------|------------|------------|------------|------------|

 6:22
G|------------|------------|------------|------------|------------|------------|------------|------------|
D|------------|------------|8-----------|8-----8-----|------------|6-----------|------------|------------|
A|8-----------|6-----------|------------|------------|8-----------|------------|6-----------|8-----------|
E|------------|------------|------------|------------|------------|------------|------------|------------|

 6:51
G|------------|------------|------------|------------|------------|------------|------------|------------|
D|------------|------------|8-----------|------------|------------|6-----------|------------|------------|
A|8-----------|6-----------|------------|8-----------|8-----------|------------|6-----------|8-----------|
E|------------|------------|------------|------------|------------|------------|------------|------------|

 7:21
G|------------|------------|------------|------------|------------|------------|------------|------------|
D|------------|------------|8-----------|8-----8-----|------------|------------|------------|-----(10)---|
A|8-----------|6-----------|------8-----|--------8-3/|8---------8/|11-------11/|6-------6-6-|8-----------|
E|------------|------------|------------|------------|------------|------------|------------|------------|

 7:49
G|------------|------------|------------|------------|------------|------------|------------|------------|
D|----------8-|------8-----|------------|------8-8---|------1010--|6-------8-6-|------8-----|------1010--|
A|8-----8-----|6---------6-|8-----8-----|8---------6-|8---------6-|------------|6---------6-|8---------8-|
E|------------|------------|------------|------------|------------|------------|------------|------------|

 8:18
G|------------|------------|------------|------------|------------|------------|------------|------------|
D|------------|------8-----|8---8-------|8---8-8-----|----------10|6---6---6-8-|------8-----|------------|
A|8---8-8---8-|6---6---6-6-|------8---8-|--------8-3/|8--88-8--8--|------6-----|6---6-----6-|8-----8---8-|
E|------------|------------|------------|------------|------------|------------|------------|------------|

 8:47
G|------------|------------|------------|------------|------------|------------|------------|------------|
D|------------|------------|8-8-8-8-8-8-|8-8-8-8-----|------------|6-6-6-6-6-6-|------------|------------|
A|8-8-8-8-8-8-|6-6-6-6-6-6-|------------|--------8-3/|8-8-8-8-8-8-|------------|6-6-6-6-6-6-|8-8-8-8-8-8-|
E|------------|------------|------------|------------|------------|------------|------------|------------|

 9:17
G|------------|------------|------------|------------|------------|------------|------------|------------|
D|------------|------------|8-8-8-8-8-8-|8-8-8-8-8-8-|------------|6-6-6-6-6-6-|------------|------------|
A|8-8-8-8-8-8-|6-6-6-6-6-6-|------------|------------|8-8-8-8-8-8-|------------|6-6-6-6-6-6-|8-8-8-8-888-|
E|------------|------------|------------|------------|------------|------------|------------|------------|

 9:46
G|------------|------------|------------|------------|------------|------------|------------|------------|
D|------------|------------|8--88-8-----|8--88-8-----|------------|6--66-6--66-|------------|------------|
A|8--88-8--88-|6--66-6--66-|--------8-6-|--------8-3/|8--88-8--88-|------------|6--66-6--66-|8--88-8--888|
E|------------|------------|------------|------------|------------|------------|------------|------------|


 10:15
G|------------|5--55-5--55-|------------|------------|------------|------------|------------|------------|
D|6--66-6--66-|------------|8--88-8--88-|8--88-8--88-|6--66-6--66-|------------|------------|------------|
A|------------|------------|------------|------------|------------|3--33-3--33-|1--11-1--11-|1--11-111111|
E|------------|------------|------------|------------|------------|------------|------------|------------|

 10:44
G|------------|------------|------------|------------|------------|------------|------------|------------|
D|------------|------------|8-----------|8-----8-----|------------|8-----------|------------|------------|
A|8-----------|6-----------|------------|------------|8-----------|------------|6-----------|8-----------|
E|------------|------------|------------|------------|------------|------------|------------|------------|

************************************

| /  Slide up
| (n) Ghost note

Almost there ...

Sign in to get your own page with links to favourite songs and more. You are just one click away...

Login with Facebook Login with Google