Log in

One click and you are in

Login with Facebook Login with Google

Why sign up and log in

Guitar Tabs Explorer
Casiopea bass tabs for Domino line

Bass tabs with lyrics

Tuning: Standard (E A D G)


Chorus:

G |---------------------|-----6-----6-----6--|--------------------|-----------3-----4-----|
D |---------------------|--------------------|--------------------|-----4-----------------|
A |---------------0--2--|-4------4-----4-----|--------------------|--------1-----2-----2--|
E |-0---0--2---4--------|--------------------|-3---3--0---2--3--0-|-2---------------------|

G |--------------------|------------4-----6--|--------------------3-|--------------4-----7--|
D |--------------------|------6--------------|--------4-----6-------|--------6--------------|
A |---------------2----|---------2-----4-----|-----------------1----|-----------2-----5-----|
E |-0---0--2---4-----2-|--4------------------|-0--2------4----------|-2--4------------------|

G |--------3-----5-----6-|---------------------4-|
D |----------------------|---------------4-------|
A |-0--1------3-----4----|-----------------------|
E |----------------------|-5---4--3--2------2----|


Verse 1:

G |---------------|-----------------|-------------|------4-----------------|
D |---------------|-----6-----------|-------------|------------------------|
A |-2--2----------|-----------------|-----------0-|--2------2---2----------|
E |------------2--|-4------4---3--3-|-2--2--------|----------------0--3--0-|

G |----------------------|-----------------|----------------------|--------------------4-|
D |----7-----------------|-----------------|----7-----------------|--------------4-------|
A |----------------------|--------------2--|----------------------|----------------------|
E |-5-----5---5--0--3--0-|-5--4--3--2------|-5-----5---5--0--3--0-|-5--4--3--2------2----|

G |---------------|-----------------|-------------|------4-----6-----7-----4-|
D |---------------|-----6-----------|-------------|--------------------------|
A |-2--2----------|-----------------|-----------0-|--2------4-----5-----2----|
E |------------2--|-4------4---3--3-|-2--2--------|--------------------------|

G |----------4-----7----|-----------------------|--------------|------4-----6-----7------|
D |----6----------------|-----5-----------------|----4---------|-------------------------|
A |-------2-----5-------|-----------------------|------------0-|--2------4-----5-----4---|
E |-4-----------------4-|-3------3---3--0--0--1-|-2-----2------|-------------------------|

Verse 2:

G |----5-----------------|----5-----------------|----------------------|----7-----------7----|
D |----------------------|----------------------|----3-----------------|---------------------|
A |-3-----3---3-----0--1-|-3-----3---3----------|--------------0--3--4-|-5-----5--0--5-----4-|
E |--------------3-------|--------------0--3--2-|-1-----1---1----------|---------------------|

G |----5-----------------|----5-----------------|-------------------|---------------------4-|
D |----------------------|----------------------|----3--------------|---------------4-------|
A |-3-----3---3-----0--1-|-3-----3---3----------|-------------------|-----------------------|
E |--------------3-------|--------------0--3--2-|-1-----1---1--3--4-|-5---4--3--2------2----|


Verse 1:

G |---------------|-----------------|-------------|------4-----------------|
D |---------------|-----6-----------|-------------|------------------------|
A |-2--2----------|-----------------|-----------0-|--2------2---2----------|
E |------------2--|-4------4---3--3-|-2--2--------|----------------0--3--0-|

G |----------------------|-----------------|----------------------|-------------------|
D |----7-----------------|-----------------|----7-----------------|-------------------|
A |----------------------|--------------2--|----------------------|-------------------|
E |-5-----5---5--0--3--0-|-5--4--3--2------|-5-----5---5--0--3--0-|-5--4--3--2---2--1-|


Chorus:

G |---------------------|-----6-----6-----6--|--------------------|-----------3-----4-----|
D |---------------------|--------------------|--------------------|-----4-----------------|
A |---------------0--2--|-4------4-----4-----|--------------------|--------1-----2-----2--|
E |-0---0--2---4--------|--------------------|-3---3--0---2--3--0-|-2---------------------|

G |--------------------|------------4-----6--|--------------------3-|--------------4-----7--|
D |--------------------|------6--------------|--------4-----6-------|--------6--------------|
A |--------------2-----|---------2-----4-----|-----------------1----|-----------2-----5-----|
E |-0---0--2---4-----2-|--4------------------|-0--2------4----------|-2--4------------------|

G |--------3-----5-----6-|---------------------|
D |----------------------|---------------4-----|
A |-0--1------3-----4----|---------------------|
E |----------------------|-5---4--3--2------2--|


VERSE 1 / KEYBOARD SOLO

G |---------------|-----------------|-------------|------4-----------------|
D |---------------|-----6-----------|-------------|------------------------|
A |-2--2----------|-----------------|-----------0-|--2------2---2----------|
E |------------2--|-4------4---3--3-|-2--2--------|----------------0--3--0-|

G |----------------------|-----------------|----------------------|--------------------4-|
D |----7-----------------|-----------------|----7-----------------|--------------4-------|
A |----------------------|--------------2--|----------------------|----------------------|
E |-5-----5---5--0--3--0-|-5--4--3--2------|-5-----5---5--0--3--0-|-5--4--3--2------2----|

G |---------------|-----------------|-------------|------4-----6-----7-----4-|
D |---------------|-----6-----------|-------------|--------------------------|
A |-2--2----------|-----------------|-----------0-|--2------4-----5-----2----|
E |------------2--|-4------4---3--3-|-2--2--------|--------------------------|

G |----------4-----7----|-----------------------|--------------|------4-----6-----7-----6-|
D |----6----------------|-----5-----------------|----4---------|--------------------------|
A |-------2-----5-------|-----------------------|------------0-|--2------4-----5-----4----|
E |-4-----------------4-|-3------3---3--0--0--1-|-2-----2------|--------------------------|


Verse 2:

G |----5-----------------|----5-----------------|----------------------|----7-----------7----|
D |----------------------|----------------------|----3-----------------|---------------------|
A |-3-----3---3-----0--1-|-3-----3---3----------|--------------0--3--4-|-5-----5--0--5-----4-|
E |--------------3-------|--------------0--3--2-|-1-----1---1----------|---------------------|

G |----5-----------------|----5-----------------|-------------------|----------------------|
D |----------------------|----------------------|----3--------------|---------------4------|
A |-3-----3---3-----0--1-|-3-----3---3----------|-------------------|----------------------|
E |--------------3-------|--------------0--3--2-|-1-----1---1--3--4-|-5---4--3--2------2---|

BREAKDOWN

G |----------------------|-----------------|---14-----------------|-------------------|
D |----------------------|-----------------|----------------------|-------------------|
A |-2--------------------|-----------------|----------------------|-------------------|
E |----------------------|-----------------|----------------------|-------------------|
                You can play these ghost notes as regular notes just in octaves if you like:
G |---14-----------------|-----------------|-------------------------|-----------------------------|
D |----------------------|-----------------|----7-----8-----9-----10-|----11-----12-----13-----14--|
A |----------------------|-----------------|-------------------------|-----------------------------|
E |----------------------|-----------------|-X-----X-----X-----X-----|-X------X------X------X------|

G |----10-----11-----12-----13-|-------6--------7----|
D |----------------------------|---------------------|
A |-X------X------X------X-----|----4-----4--5-----5-|
E |----------------------------|---------------------|

BASD SOLO
   D  P D  P D D P  D  P D D P  D D  D P D D P
G |------X-------6------6h7------7-----7h9----------------------|
D |---------------------------------------------------5-----5h7-|
A |---------5h7-------------------------------5h7---------------|
E |-0--------------X-X-------0-----X-X-----0-------0----X-X-----|

   D  P D  P D D P  D  P D D P  D D  D  D  S
G |------X-------6------6h7------7-----7h9--------------------------------|
D |---------------------------------------------------5h7-5h6p5h6p5h6p5h6-|
A |---------5h7-----------------------------------5h7---------------------|
E |-0--------------X-X-------0-----X-X-----0--5h7-------------------------|

   D  P D  P D D P  D  P D D P D D P  D P D D P
G |------X-------6------6h7------9-----7-----4h6----7-----7h9-|
D |-----------------------------------------------------------|
A |---------5h7-----------------------------------------------|
E |-0--------------X-X-------0-----X-X---X-X-----0----X-X-----|

   D  P D  P D D P  D  P D D P  D D  D  D D
G |------X-------6------6h7------7-----7h9--------------------|
D |-----------------------------------------------------------|
A |---------5h7-------------------------------5h7-------------|
E |-0--------------X-X-------0-----X-X-----0------5h7--5--3---|

   D  P D  P D D P  D P  D P D D P  D P D D P  D P D D P  D P D D P  D P  D P   D D D
G |------X-------6------6h7-----7h9---9-----6h7---7-----4h6---6-----6h7----7-----7h9---9h11---11h13-------|
D |-------------------------------------------------------------------------------------------------------|
A |---------5h7-------------------------------------------------------------------------------------------|
E |-0--------------X-X-------0------0---X-X-----0---X-X-----0---X-X-----0----X-X-----0------0-------12\\\-|

  D  P D  P D D P  D  P D  D   D   D   D  D
G |------X-------6------6h7------7----------------------------------|
D |-----------------------------------------------------------------|
A |---------5h7-------------------------------5h7----------5h7--5---|
E |-0--------------X-X-------0-----0---0h5h7--------0h5h7-----------|

  D   D   D   D   D   D   D  D D   D  D  D  P  D
G |----------------------------------------------------------------------7h9-------|
D |------------------------------------------------------------5h7--7/9-------7h9--|
A |---------------5h7-----------------5h7-----------------5h7----------------------|
E |-0h5----0h5h7--------0h5----0h5h7--------0---0--0h5h7---------------------------|

  D   D   D   D  D P D P D D P  D P D D P  D D
G |-----------------------------6-----7-------6h7-----9-------7h9----------|
D |------------------------------------------------------------------------|
A |---------------5h7------------------------------------------------------|
E |-0h5----0h5h7--------0h5--X-----0-----X-X-------0-----X-X-------0--12\--|

  D D  D P D  P D  P D  P D  P D  P D  P
G |-----------6-------7-------6-------5-------4-------6-------7--|
D |--------------------------------------------------------------|
A |--------4-----4/5-----5\4-----4\3-----3\2-----2/4-----4/5-----|
E |-0--0---------------------------------------------------------|

[This part is very percussive so move somewhat chromatically from the E to the B and back up while double
thumping and popping in octaves, just try and follow the recording]
G |-------9-------7-------6-------5-------4---4-------5-------6--------6-------7-------8-------|
D |--------------------------------------------------------------------------------------------|
A |--7-7-----5-5-----4-4-----3-3-----2-2---------2-2-----3-3-----4-4------4-4-----5-5-----6-6--|
E |--------------------------------------------------------------------------------------------|

  D U D U D U D  D U D U D U D  D U D U D U D  D U D U D U D
G |-------------------------------------------------------------------------|[This part is oversimplified
D |-------------------------------------------------------------------------| slightly, play around with the
A |--------------6h7---------------7h9---------------6h7---------------7h9--| upstrokes and downtstrokes,
E |-7-7-9-9-9-9-------7-7-9-9-9-9-------7-7-9-9-9-9-------7-7-9-9-9-9-------| hammer ons etc]

  As before:
G |-------9-------7-------6-------5-------4---4-------5-------6--------6-------7-------8-------|
D |--------------------------------------------------------------------------------------------|
A |--7-7-----5-5-----4-4-----3-3-----2-2---------2-2-----3-3-----4-4------4-4-----5-5-----6-6--|
E |--------------------------------------------------------------------------------------------|

  D U D U D U D  D U D U D U D  D U D U D U P  P   D D
G |--------------------------------------------------6h7--7h9---------|
D |-------------------------------------------------------------------|
A |--------------6h7---------------7h9-----------------------------0--|
E |-7-7-9-9-9-9-------7-7-9-9-9-9-------7-7-9-9-9-9-------------0-----|

[This part isn't as hard as it looks, just play these octaves with your finger and the back of your thumb,
the ghost notes will come naturally]
   P   P   P   P   P   P   P   P   P   P   P   P   P   P   P   P   P
  D U  D U  D U  D U  D U  D U  D U  D U  D U  D U  D U  D U  D U  D U  D U  D U  D U
G |---5-----6-----7-----6-----7-----8-----7-----8-----7-----8-----9-----10----9-----10----11----10----11-|
D |------------------------------------------------------------------------------------------------------|
A |-X-3---X-4---X-5---X-4---X-5---X-6---X-5---X-6---X-7---X-6---X-7---X-8---X-7---X-8---X-9---X-8---X-9--|
E |------------------------------------------------------------------------------------------------------|

   P   P   P  P
  D U  D U  D U D U
G |---12----13----11---11--|
D |------------------------|
A |-X-10--X-11--X-9--X-10--|
E |------------------------|

  D D D P D  P D  D  D U D P D U  P D  D  D  P  D
G |----------6-------7-------------------6---------7--------------7h9----|
D |-----------------------------------------------------------7h9--------|
A |-------4-----4/5---------5h7-----X-4-----4-4/5-----5h7-7/9------------|
E |-0--0----------------5/7------0------------------------------------0--|

  D D D P D  P D  D  D  U D U  D  P D  P D  P
G |----------6-------7----------------------------6-------7-------8--|
D |------------------------------------------------------------------|
A |-------4-----4/5---------5h7------X-X-X---3/4-----4/5-----5/6-----|
E |-0--0----------------5/7------0-----------------------------------|

[These notes are halfway between regular notes and ghost notes so focus on the percussive effect rather than
the notes themselves]
  D P D D P D D P D D P D D P D D P D D P D D P D D P D D P D
G |----9-----------6-----7-----8------9-----------6-----7-----8----|
D |----------9------------------------------9----------------------|
A |-7----------4-4---5-5---6-6---6-7----------4-4---5-5---6-6---6--|
E |------7-7----------------------------7-7------------------------|

  D P D D P D D P D D P D D P D D P D P D  P  D D P D D P
G |----9-----------6-----7-----8------9----11-----12------7-----8--|
D |----------9-----------------------------------------------------|
A |-7----------4-4---5-5---6-6---6-7----9-----10------5-5---6-6----|
E |------7-7-------------------------------------------------------|

  D P D D P D D P D D P D D P D D P D D P D D P D D P D D P D
G |----9-----------6-----7-----8------9-----------6-----7-----8----|
D |----------9------------------------------9----------------------|
A |-7----------4-4---5-5---6-6---6-7----------4-4---5-5---6-6---6--|
E |------7-7----------------------------7-7------------------------|

  D P D D P D D P D D P D D D  D D D P D
G |----9-----------6-----7------------------------|
D |----------9------------------------------4-----|
A |-7----------4-4---5-5---6-6--------------------|
E |------7-7-------------------5---4--3--2-----2--| END OF SOLO

DRUM SOLO

G |---------|---------|---------|---------|---------|---------|---------|----------|
D |---------|---------|---------|---------|---------|---------|---------|----------|
A |-2-------|---------|---------|-------0-|---------|---------|---------|-----2--0-|
E |---------|---------|---------|---------|---------|---------|---------|--3-------|

G |---------|---------|---------|---------|---------|---------|---------|----------|
D |---------|---------|---------|---------|---------|---------|---------|----------|
A |---------|---------|---------|-------0-|---------|---------|---------|-----2--0-|
E |---------|---------|---------|---------|---------|---------|---------|--3-------|

G |---------|---------|---------|---------|---------|---------|---------|----------|
D |---------|---------|---------|---------|---------|---------|---------|----------|
A |---------|---------|---------|-------0-|---------|---------|---------|-----2--0-|
E |---------|---------|---------|---------|---------|---------|---------|--3-------|

G |---------|---------|---------|---------|---------|---------|---------|----------|
D |---------|---------|---------|---------|---------|---------|---------|----------|
A |---------|---------|---------|-------0-|---------|---------|---------|-----2--0-|
E |---------|---------|---------|---------|---------|---------|---------|--3-------|

G |---------|---------|---------|---------|---------|---------|---------|----------|
D |---------|---------|---------|---------|---------|---------|---------|----------|
A |---------|---------|---------|-------0-|---------|---------|---------|-----2--0-|
E |---------|---------|---------|---------|---------|---------|---------|--3-------|

G |---------|---------|---------|---------|---------|---------|---------|----------|
D |---------|---------|---------|---------|---------|---------|---------|----------|
A |---------|---------|---------|---------|-0-------|-0-------|-0-------|-0--------|
E |---------|---------|---------|---------|---------|---------|---------|----------|

G |-----------------------|
D |---------------4-------|
A |-----------------------|
E |-5---4--3--2------2----|


VERSE 1 / GUITAR SOLO

G |---------------|-----------------|-------------|------4-----------------|
D |---------------|-----6-----------|-------------|------------------------|
A |-2--2----------|-----------------|-----------0-|--2------2---2----------|
E |------------2--|-4------4---3--3-|-2--2--------|----------------0--3--0-|

G |----------------------|-----------------|----------------------|--------------------4-|
D |----7-----------------|-----------------|----7-----------------|--------------4-------|
A |----------------------|--------------2--|----------------------|----------------------|
E |-5-----5---5--0--3--0-|-5--4--3--2------|-5-----5---5--0--3--0-|-5--4--3--2------2----|

G |---------------|-----------------|-------------|------4-----6-----7-----4-|
D |---------------|-----6-----------|-------------|--------------------------|
A |-2--2----------|-----------------|-----------0-|--2------4-----5-----2----|
E |------------2--|-4------4---3--3-|-2--2--------|--------------------------|

G |----------4-----7----|-----------------------|--------------|------4-----6-----7-----6-|
D |----6----------------|-----5-----------------|----4---------|--------------------------|
A |-------2-----5-------|-----------------------|------------0-|--2------4-----5-----4----|
E |-4-----------------4-|-3------3---3--0--0--1-|-2-----2------|--------------------------|


Verse 2:

G |----5-----------------|----5-----------------|----------------------|----7-----------7----|
D |----------------------|----------------------|----3-----------------|---------------------|
A |-3-----3---3-----0--1-|-3-----3---3----------|--------------0--3--4-|-5-----5--0--5-----4-|
E |--------------3-------|--------------0--3--2-|-1-----1---1----------|---------------------|

G |----5-----------------|----5-----------------|-------------------|----------------------|
D |----------------------|----------------------|----3--------------|---------------4------|
A |-3-----3---3-----0--1-|-3-----3---3----------|-------------------|----------------------|
E |--------------3-------|--------------0--3--2-|-1-----1---1--3--4-|-5---4--3--2------2---|


Verse 1:

G |---------------|-----------------|-------------|------4-----------------|
D |---------------|-----6-----------|-------------|------------------------|
A |-2--2----------|-----------------|-----------0-|--2------2---2----------|
E |------------2--|-4------4---3--3-|-2--2--------|----------------0--3--0-|

G |----------------------|-----------------|----------------------|-------------------|
D |----7-----------------|-----------------|----7-----------------|-------------------|
A |----------------------|--------------2--|----------------------|-------------------|
E |-5-----5---5--0--3--0-|-5--4--3--2------|-5-----5---5--0--3--0-|-5--4--3--2---2--1-|


CHORUS FINAL CHORUS SO IMPROV / CHANGE IT UP:

G |---------------------|-----6-----6-----6--|--------------------|-----------3-----4-----|
D |---------------------|--------------------|--------------------|-----4-----------------|
A |---------------0--2--|-4------4-----4-----|--------------------|--------1-----2-----2--|
E |-0---0--2---4--------|--------------------|-3---3--0---2--3--0-|-2---------------------|

G |---------------------|-----6-----6-----6--|--------------------|-----------3-----4-----|
D |---------------------|--------------------|--------------------|-----4-----------------|
A |---------------0--2--|-4------4-----4-----|--------------------|--------1-----2-----2--|
E |-0---0--2---4--------|--------------------|-3---3--0---2--3--0-|-2---------------------|

G |---------------------|-----6-----6-----6--|--------------------|-----------3-----4-----|
D |---------------------|--------------------|--------------------|-----4-----------------|
A |---------------0--2--|-4------4-----4-----|--------------------|--------1-----2-----2--|
E |-0---0--2---4--------|--------------------|-3---3--0---2--3--0-|-2---------------------|

G |---------------------|-----6-----6-----6--|--------------------|-----------3-----4-----|
D |---------------------|--------------------|--------------------|-----4-----------------|
A |---------------0--2--|-4------4-----4-----|--------------------|--------1-----2-----2--|
E |-0---0--2---4--------|--------------------|-3---3--0---2--3--0-|-2---------------------|

G |---------------------|-----6-----6-----6--|--------------------|-----------3-----4-----|
D |---------------------|--------------------|--------------------|-----4-----------------|
A |---------------0--2--|-4------4-----4-----|--------------------|--------1-----2-----2--|
E |-0---0--2---4--------|--------------------|-3---3--0---2--3--0-|-2---------------------|

G |--------------------|------------4-----6--|--------------------3-|--------------4-----7--|
D |--------------------|------6--------------|--------4-----6-------|--------6--------------|
A |---------------2----|---------2-----4-----|-----------------1----|-----------2-----5-----|
E |-0---0--2---4-----2-|--4------------------|-0--2------4----------|-2--4------------------|

                                     D U P D U P D U P D U P
G |--------3-----5-----6-|-------------------|-----4-----8-----6-----4--|-----2////////////14------|[Slowly
D |----------------------|---------------4---|--------------------------|--------------------------| slide up
A |-0--1------3-----4----|-------------------|--2-----6-----4-----2-----|-0-0///////12-12----------|the octave
E |----------------------|-5---4--3--2-------|--------------------------|--------------------------| with this
                                                   pattern]

************************************

| h Hammer-on
| / Slide up
| \ Slide down
| D Downstroke \ used when
| U Upstroke  / slapping
| P Pop

************************************

Thank you! :)

Almost there ...

Sign in to get your own page with links to favourite songs and more. You are just one click away...

Login with Facebook Login with Google