Log in

One click and you are in

Login with Facebook Login with Google

Why sign up and log in

Guitar Tabs Explorer
Carson Coma bass tabs for Pók

Bass tabs

  • Difficulty: Intermediate
Tuning: Standard (E A D G)



Intro:              Verse:
G |-------|-------|-------|-------|----------------------------|
D |-------|-------|-------|-------|-----------------------2.---|
A |-------|-------|-------|-------|--------------------2.------|
E |-------|-------|-------|-------|--0--------3.-2--3----------|
G |----------------------------------------------------|
D |--1-------------------------------------------------|
A |--------------------2--0----------------------------|
E |--------------------------3.----2.----1-----2-------|


G |----------------------------------------------------|
D |--------------------2--3--4.----2-------------------|
A |--5-----------------------------------5.----3.------|
E |----------------------------------------------------|


G |----------------------------|----------------------------|
D |----------------------------|-----------------------2.---|
A |--2-----------2.-2----------|--------------------2.------|
E |--------------------2.-2----|--0--------3.-2--3----------|


G |----------------------------------------------------|
D |--1-------------------------------------------------|
A |--------------------2--0----------------------------|
E |--------------------------3.----2.----1-----2-------|

G |----------------------------------------------------|
D |--------------------2--3--4.----2-------------------|
A |--5-----------------------------------5.----3.------|
E |----------------------------------------------------|


G |----------------------------|----------------------------|
D |----------------------------|-----------------------2.---|
A |--2-----------2.-2----------|--------------------2.------|
E |--------------------2.-2----|--0--------3.-2--3----------|


G |----------------------------------------------------|
D |--1-------------------------------------------------|
A |--------------------2--0----------------------------|
E |--------------------------3.----2.----1-----2-------|

                                Bridge (pick):
G |----------------------------------------------------|-------|-------|
D |--------------------2--3--4.----2-------------------|-------|-------|
A |--5-----------------------------------5.----3.------|--2----|-------|
E |----------------------------------------------------|-------|-------|


G |----------------------------|----------------------------|-------|
D |-----------5--5-------------|----------------------------|-------|
A |-----------------------5----|--2--2--2--2--2--2--2--2----|-------|
E |--3--3--3--------3--3-------|----------------------------|-------|


Chorus:
G |----------------------------|----------------------------|
D |----------------------------|----------------------------|
A |--3--3--------3--3--2--2----|----------------------------|
E |----------------------------|--3--3--------3--3--2--2----|


G |----------------------------|
D |----------------------------|
A |--2--2--------2--2----------|
E |--------------------2--2----|


Verse:
G |----------------------------------------------------|-------|
D |----------------------------------------------------|-------|
A |--------------------------2--3--2--0--2--0----------|-------|
E |--0-----0-----0-----0-----------------------3--2----|-------|


G |----------------------------------------------------|
D |--1-------------------------------------------------|
A |--------------------2--0----------------------------|
E |--------------------------3.----2.----1-----2-------|


G |----------------------------------------------------|
D |--------------------2--3--4.----2-------------------|
A |--5-----------------------------------5.----3.------|
E |----------------------------------------------------|


G |----------------------------------------------------|
D |----------------------------------------------------|
A |--2-----------------------2--3--2--0--2--0----------|
E |--------------------------------------------3--2----|


G |----------------------------|
D |-----------------------2.---|
A |--------------------2.------|
E |--------0.-3.-2--3----------|


G |----------------------------------------------------|
D |--1-------------------------------------------------|
A |--------------------2--0----------------------------|
E |--------------------------3.----2.----1-----2-------|

                                Bridge (pick):
G |----------------------------------------------------|-------|-------|
D |--------------------2--3--4.----2-------------------|-------|-------|
A |--5-----------------------------------5.----3.------|--2----|-------|
E |----------------------------------------------------|-------|-------|


G |----------------------------|----------------------------|-------|
D |-----------5--5-------------|----------------------------|-------|
A |-----------------5-----2----|--2--2--2--2--2--2--2--2----|-------|
E |--3--3--3-----------3-------|----------------------------|-------|


Chorus:
G |----------------------------|----------------------------|
D |----------------------------|----------------------------|
A |--3--3--------3--3--2--2----|----------------------------|
E |----------------------------|--3--3--------3--3--2--2----|


G |----------------------------|----------------------------|
D |----------------------------|----------------------------|
A |--2--2--------2--2----------|-----------0-----2-----5----|
E |--------------------2--2----|--0--3--2-----3-----5-------|


G |----------------------------|----------------------------|
D |----------------------------|----------------------------|
A |--3--3--------3--3--2--2----|----------------------------|
E |----------------------------|--3--3--------3--3--2--2----|


G |----------------------------|----------------------------|
D |----------------------------|----------------------------|
A |--2--2--------2--2----------|-----------0-----2-----5----|
E |--------------------2--2----|--0--3--2-----3-----5-------|


Solo:
G |----------------------------|----------------------------|
D |----------------------------|----------------------------|
A |--3--3--------3--3----------|----------------------------|
E |----------------------------|--3--3--3--3--3--3--2--2----|


G |----------------------------|----------------------------|
D |----------------------------|----------------------------|
A |--2--2--2--2--2--2----------|-----------0-----2-----5----|
E |--------------------2--2----|--0--3--2-----3-----5-------|


G |----------------------------|----------------------------|
D |----------------------------|----------------------------|
A |--3--3--3--3--3--3--2--2----|----------------------------|
E |----------------------------|--3--3--3--3--3--3--2--2----|


G |----------------------------|----------------------------|
D |----------------------------|----------------------------|
A |--2--2--2--2--2--2----------|-----------0-----2-----5----|
E |--------------------2--2----|--0--3--2-----3-----5-------|


Chorus alt.:
G |----------------------------|----------------------------|
D |----------------------------|----------------------------|
A |--3--3--3--3--3--5--3--2----|----------------------------|
E |----------------------------|--3--3--3--3s-7--7s-2--2----|


G |----------------------------|----------------------------|
D |----------------------------|----------------------------|
A |--2--2--2--2--2--2----------|-----------0-----2-----5----|
E |--------------------2--2----|--0--3--2-----3-----5-------|


G |----------------------------|----------------------------|
D |----------------------------|----------------------------|
A |--3--3--3--3--3--5--3--2----|----------------------------|
E |----------------------------|--3--3--3--3s-7--7s-2--2----|


G |----------------------------|----------------------------|
D |----------------------------|----------------------------|
A |--2--2--2--2--2--2----------|----------------------------|
E |--------------------2--2----|--0--0--0--0----------------|


Outro:
G |-------|-------|-------||
D |-------|-------|-------||
A |-------|-------|-------||
E |-------|-------|-------||

🏷Legend
s - slide
. - staccato

Almost there ...

Sign in to get your own page with links to favourite songs and more. You are just one click away...

Login with Facebook Login with Google