Log in

One click and you are in

Login with Facebook Login with Google

Why sign up and log in

Guitar Tabs Explorer
Sabrina Carpenter guitar tabs for Looking at me

Guitar tabs

Tuning: Standard (E A D G B E)


Intro:

e|-10h11-8-8h10-|-8-8h10p8-------|--------------|
B|--------------|----------11p10-|-10h11-8-8h10-|
G|--------------|----------------|--------------|
D|--------------|----------------|--------------|
A|--------------|----------------|--------------|
E|--------------|----------------|--------------|
e|-10h11-8-8h10-|-8-8h10p8-------|--------------|
B|--------------|----------11p10-|-10h11-8-8h10-|
G|--------------|----------------|--------------|
D|--------------|----------------|--------------|
A|--------------|----------------|--------------|
E|--------------|----------------|--------------|


Verse 1:

e|----------------|----------------|----------------|----------------|
B|----------------|----------------|----------------|----------------|
G|------8-8-x-8-8-|-7-7--7-7-x-7-7-|------8-8-x-8-8-|-7-7--7-7-x-7-7-|
D|-5-5--8-8-x-8-8-|-7-7--7-7-x-7-7-|-5-5--8-8-x-8-8-|-7-7--7-7-x-7-7-|
A|-5-5--6-6-x-6-6-|-5-5--5-5-x-5-5-|-5-5--6-6-x-6-6-|-5-5--5-5-x-5-5-|
E|-3-3------------|----------------|-3-3------------|----------------|

e|----------------|----------------|----------------|----------------|
B|----------------|----------------|----------------|----------------|
G|------8-8-x-8-8-|-7-7--7-7-x-7-7-|------8-8-x-8-8-|-7-7--7-7-x-7-7-|
D|-5-5--8-8-x-8-8-|-7-7--7-7-x-7-7-|-5-5--8-8-x-8-8-|-7-7--7-7-x-7-7-|
A|-5-5--6-6-x-6-6-|-5-5--5-5-x-5-5-|-5-5--6-6-x-6-6-|-5-5--5-5-x-5-5-|
E|-3-3------------|----------------|-3-3------------|----------------|


Pre-Chorus:

e|----------------|----------------|----------------|----------------|
B|----------------|----------------|----------------|----------------|
G|----------------|-7-7--7-7-x-7-7-|----------------|-7-7--7-7-x-7-7-|
D|-5-5--5-5-x-5-5-|-7-7--7-7-x-7-7-|-5-5--5-5-x-5-5-|-7-7--7-7-x-7-7-|
A|-5-5--5-5-x-5-5-|-5-5--5-5-x-5-5-|-5-5--5-5-x-5-5-|-5-5--5-5-x-5-5-|
E|-3-3--3-3-x-3-3-|----------------|-3-3--3-3-x-3-3-|----------------|


Chorus:

e|----------------|----------------|----------------|----------------|
B|----------------|----------------|----------------|----------------|
G|------8-8-x-8-8-|-7-7--7-7-x-7-7-|------8-8-x-8-8-|-7-7--7-7-x-7-7-|
D|-5-5--8-8-x-8-8-|-7-7--7-7-x-7-7-|-5-5--8-8-x-8-8-|-7-7--7-7-x-7-7-|
A|-5-5--6-6-x-6-6-|-5-5--5-5-x-5-5-|-5-5--6-6-x-6-6-|-5-5--5-5-x-5-5-|
E|-3-3------------|----------------|-3-3------------|----------------|

e|----------------|----------------|----------------|----------------|
B|----------------|----------------|----------------|----------------|
G|------8-8-x-8-8-|-7-7--7-7-x-7-7-|------8-8-x-8-8-|-7-7--7-7-x-7-7-|
D|-5-5--8-8-x-8-8-|-7-7--7-7-x-7-7-|-5-5--8-8-x-8-8-|-7-7--7-7-x-7-7-|
A|-5-5--6-6-x-6-6-|-5-5--5-5-x-5-5-|-5-5--6-6-x-6-6-|-5-5--5-5-x-5-5-|
E|-3-3------------|----------------|-3-3------------|----------------|


Post-Chorus:

e|-10h11-8-8h10-|-8-8h10p8-------|--------------|
B|--------------|----------11p10-|-10h11-8-8h10-|
G|--------------|----------------|--------------|
D|--------------|----------------|--------------|
A|--------------|----------------|--------------|
E|--------------|----------------|--------------|


e|-10h11-8-8h10-|-8-8h10p8-------|--------------|
B|--------------|----------11p10-|-10h11-8-8h10-|
G|--------------|----------------|--------------|
D|--------------|----------------|--------------|
A|--------------|----------------|--------------|
E|--------------|----------------|--------------|


Verse 2:

e|----------------|----------------|----------------|----------------|
B|----------------|----------------|----------------|----------------|
G|------8-8-x-8-8-|-7-7--7-7-x-7-7-|------8-8-x-8-8-|-7-7--7-7-x-7-7-|
D|-5-5--8-8-x-8-8-|-7-7--7-7-x-7-7-|-5-5--8-8-x-8-8-|-7-7--7-7-x-7-7-|
A|-5-5--6-6-x-6-6-|-5-5--5-5-x-5-5-|-5-5--6-6-x-6-6-|-5-5--5-5-x-5-5-|
E|-3-3------------|----------------|-3-3------------|----------------|

e|----------------|----------------|----------------|----------------|
B|----------------|----------------|----------------|----------------|
G|------8-8-x-8-8-|-7-7--7-7-x-7-7-|------8-8-x-8-8-|-7-7--7-7-x-7-7-|
D|-5-5--8-8-x-8-8-|-7-7--7-7-x-7-7-|-5-5--8-8-x-8-8-|-7-7--7-7-x-7-7-|
A|-5-5--6-6-x-6-6-|-5-5--5-5-x-5-5-|-5-5--6-6-x-6-6-|-5-5--5-5-x-5-5-|
E|-3-3------------|----------------|-3-3------------|----------------|


Pre-Chorus:

e|----------------|----------------|----------------|----------------|
B|----------------|----------------|----------------|----------------|
G|----------------|-7-7--7-7-x-7-7-|----------------|-7-7--7-7-x-7-7-|
D|-5-5--5-5-x-5-5-|-7-7--7-7-x-7-7-|-5-5--5-5-x-5-5-|-7-7--7-7-x-7-7-|
A|-5-5--5-5-x-5-5-|-5-5--5-5-x-5-5-|-5-5--5-5-x-5-5-|-5-5--5-5-x-5-5-|
E|-3-3--3-3-x-3-3-|----------------|-3-3--3-3-x-3-3-|----------------|



Chorus:

e|----------------|----------------|----------------|----------------|
B|----------------|----------------|----------------|----------------|
G|------8-8-x-8-8-|-7-7--7-7-x-7-7-|------8-8-x-8-8-|-7-7--7-7-x-7-7-|
D|-5-5--8-8-x-8-8-|-7-7--7-7-x-7-7-|-5-5--8-8-x-8-8-|-7-7--7-7-x-7-7-|
A|-5-5--6-6-x-6-6-|-5-5--5-5-x-5-5-|-5-5--6-6-x-6-6-|-5-5--5-5-x-5-5-|
E|-3-3------------|----------------|-3-3------------|----------------|

e|----------------|----------------|----------------|----------------|
B|----------------|----------------|----------------|----------------|
G|------8-8-x-8-8-|-7-7--7-7-x-7-7-|------8-8-x-8-8-|-7-7--7-7-x-7-7-|
D|-5-5--8-8-x-8-8-|-7-7--7-7-x-7-7-|-5-5--8-8-x-8-8-|-7-7--7-7-x-7-7-|
A|-5-5--6-6-x-6-6-|-5-5--5-5-x-5-5-|-5-5--6-6-x-6-6-|-5-5--5-5-x-5-5-|
E|-3-3------------|----------------|-3-3------------|----------------|


Bridge:


e|-10h11-8-8h10-|-8-8h10p8-------|--------------|
B|--------------|----------11p10-|-10h11-8-8h10-|
G|--------------|----------------|--------------|
D|--------------|----------------|--------------|
A|--------------|----------------|--------------|
E|--------------|----------------|--------------|


e|-10h11-8-8h10-|-8-8h10p8-------|--------------|
B|--------------|----------11p10-|-10h11-8-8h10-|
G|--------------|----------------|--------------|
D|--------------|----------------|--------------|
A|--------------|----------------|--------------|
E|--------------|----------------|--------------|

e|-10---|-------8-10-8-----------|
B|----8-|-10/11---------11-10-10-|
G|------|------------------------|
D|------|------------------------|
A|------|------------------------|
E|------|------------------------|

e|-10---|-------8-10-8--------8-----------------------|
B|----8-|-10/11---------11-10---11-10-8-11-10-8----10-|
G|------|---------------------------------------10----|
D|------|---------------------------------------------|
A|------|---------------------------------------------|
E|------|---------------------------------------------|


Chorus:


e|----------------|----------------|----------------|----------------|
B|----------------|----------------|----------------|----------------|
G|------8-8-x-8-8-|-7-7--7-7-x-7-7-|------8-8-x-8-8-|-7-7--7-7-x-7-7-|
D|-5-5--8-8-x-8-8-|-7-7--7-7-x-7-7-|-5-5--8-8-x-8-8-|-7-7--7-7-x-7-7-|
A|-5-5--6-6-x-6-6-|-5-5--5-5-x-5-5-|-5-5--6-6-x-6-6-|-5-5--5-5-x-5-5-|
E|-3-3------------|----------------|-3-3------------|----------------|

e|----------------|----------------|----------------|----------------|
B|----------------|----------------|----------------|----------------|
G|------8-8-x-8-8-|-7-7--7-7-x-7-7-|------8-8-x-8-8-|-7-7--7-7-x-7-7-|
D|-5-5--8-8-x-8-8-|-7-7--7-7-x-7-7-|-5-5--8-8-x-8-8-|-7-7--7-7-x-7-7-|
A|-5-5--6-6-x-6-6-|-5-5--5-5-x-5-5-|-5-5--6-6-x-6-6-|-5-5--5-5-x-5-5-|
E|-3-3------------|----------------|-3-3------------|----------------|


Outro:


e|----------------|----------------|----------------|----------------|
B|----------------|----------------|----------------|----------------|
G|------8-8-x-8-8-|-7-7--7-7-x-7-7-|------8-8-x-8-8-|-7-7--7-7-x-7-7-|
D|-5-5--8-8-x-8-8-|-7-7--7-7-x-7-7-|-5-5--8-8-x-8-8-|-7-7--7-7-x-7-7-|
A|-5-5--6-6-x-6-6-|-5-5--5-5-x-5-5-|-5-5--6-6-x-6-6-|-5-5--5-5-x-5-5-|
E|-3-3------------|----------------|-3-3------------|----------------|


e|----------------|----------------|----------------|----------------|
B|----------------|----------------|----------------|----------------|
G|------8-8-x-8-8-|-7-7--7-7-x-7-7-|------8-8-x-8-8-|-7-7--7-7-x-7-7-|
D|-5-5--8-8-x-8-8-|-7-7--7-7-x-7-7-|-5-5--8-8-x-8-8-|-7-7--7-7-x-7-7-|
A|-5-5--6-6-x-6-6-|-5-5--5-5-x-5-5-|-5-5--6-6-x-6-6-|-5-5--5-5-x-5-5-|
E|-3-3------------|----------------|-3-3------------|----------------|

e|------------|
B|------------|
G|------------|
D|-5--5-5-x-5-|
A|-5--5-5-x-5-|
E|-3--3-3-x-3-|



************************************

| h  Hammer-on
| p  Pull-off
| x  Dead note
| /  Slide up

************************************


The chords used in this tab are: G5, A chord diagramEb5Eb5 and A chord diagramD5D5
The strumming pattern is: DD DUDDU
The original chords are: Gm, A chord diagramEb MajorEb and A chord diagramD MajorD
It sounds better playing the G5, A chord diagramEb5Eb5 and A chord diagramD5D5
A chord diagramA majorA great song for guitar,
Enjoy jamming!

Other versions of Looking At Me

Looking at MeChords

Almost there ...

Sign in to get your own page with links to favourite songs and more. You are just one click away...

Login with Facebook Login with Google