Guitar Tabs Explorer
Caroline Pennell guitar tabs for Follow the sun

Follow The Sun tab


Be the first to rate

Follow The Sun tab by Caroline Pennell

Guitar tabs with lyrics

Print

  • Capo on 7th

Tuning: Standard (E chord diagramEE A chord diagramAA D chord diagramDD G chord diagramGG B chord diagramBB E chord diagramEE)

Difficulty: Intermediate

Intro:
         F chord diagramFF                   F chord diagramFF                   F chord diagramFF                   F chord diagramFF
e|-------1-----------|-------1-----------|-------1-----------|-------1-----------|
B|-------------------|-------------------|-------------------|-------------------|
G|-----2---2---------|-----2---2---------|-----2---2---------|-----2---2---------|
D|---3-------3-------|---3-------3-------|---3-------3-------|---3-------3-------|
A|-------------------|-------------------|-------------------|-------------------|
E|-------------------|-------------------|-------------------|-------------------|

         F chord diagramFF                   F chord diagramFF                   F chord diagramFF                   F chord diagramFF
e|-------1-----------|-------1-----------|-------1-----------|-------1-----------|
B|-------------------|-------------------|-------------------|-------------------|
G|-----2---2---------|-----2---2---------|-----2---2---------|-----2---2---------|
D|---3-------3-------|---3-------3-------|---3-------3-------|---3-------3-------|
A|-------------------|-------------------|-------------------|-------------------|
E|-------------------|-------------------|-------------------|-------------------|

       Fsus4 chord diagramFsus4Fsus4               Fsus4 chord diagramFsus4Fsus4               Fsus4 chord diagramFsus4Fsus4               Fsus4 chord diagramFsus4Fsus4
e|-------1-----------|-------1-----------|-------1-----------|-------1-----------|
B|-------------------|-------------------|-------------------|-------------------|
G|-----3---3---------|-----3---3---------|-----3---3---------|-----3---3---------|
D|---3-------3-------|---3-------3-------|---3-------3-------|---3-------3-------|
A|-------------------|-------------------|-------------------|-------------------|
E|-------------------|-------------------|-------------------|-------------------|

         F chord diagramFF                   F chord diagramFF                   F chord diagramFF                   F chord diagramFF
e|-------1-----------|-------1-----------|-------1-----------|-------1-----------|
B|-------------------|-------------------|-------------------|-------------------|
G|-----2---2---------|-----2---2---------|-----2---2---------|-----2---2---------|
D|---3-------3-------|---3-------3-------|---3-------3-------|---3-------3-------|
A|-------------------|-------------------|-------------------|-------------------|
E|-------------------|-------------------|-------------------|-------------------|


Verse:
Follow,  follow
         F chord diagramFF                   F chord diagramFF                   F chord diagramFF                   F chord diagramFF
e|-------1-----------|-------1-----------|-------1-----------|-------1-----------|
B|-------------------|-------------------|-------------------|-------------------|
G|-----2---2---------|-----2---2---------|-----2---2---------|-----2---2---------|
D|---3-------3-------|---3-------3-------|---3-------3-------|---3-------3-------|
A|-------------------|-------------------|-------------------|-------------------|
E|-------------------|-------------------|-------------------|-------------------|

The sun
         F chord diagramFF                   F chord diagramFF                   F chord diagramFF                   F chord diagramFF
e|-------1-----------|-------1-----------|-------1-----------|-------1-----------|
B|-------------------|-------------------|-------------------|-------------------|
G|-----2---2---------|-----2---2---------|-----2---2---------|-----2---2---------|
D|---3-------3-------|---3-------3-------|---3-------3-------|---3-------3-------|
A|-------------------|-------------------|-------------------|-------------------|
E|-------------------|-------------------|-------------------|-------------------|

And which way the wind blows
       Fsus4 chord diagramFsus4Fsus4               Fsus4 chord diagramFsus4Fsus4               Fsus4 chord diagramFsus4Fsus4               Fsus4 chord diagramFsus4Fsus4
e|-------1-----------|-------1-----------|-------1-----------|-------1-----------|
B|-------------------|-------------------|-------------------|-------------------|
G|-----3---3---------|-----3---3---------|-----3---3---------|-----3---3---------|
D|---3-------3-------|---3-------3-------|---3-------3-------|---3-------3-------|
A|-------------------|-------------------|-------------------|-------------------|
E|-------------------|-------------------|-------------------|-------------------|

When this day is done
         F chord diagramFF                   F chord diagramFF                   F chord diagramFF                   F chord diagramFF
e|-------1-----------|-------1-----------|-------1-----------|-------1-----------|
B|-------------------|-------------------|-------------------|-------------------|
G|-----2---2---------|-----2---2---------|-----2---2---------|-----2---2---------|
D|---3-------3-------|---3-------3-------|---3-------3-------|---3-------3-------|
A|-------------------|-------------------|-------------------|-------------------|
E|-------------------|-------------------|-------------------|-------------------|

         F chord diagramFF                   F chord diagramFF                   F chord diagramFF                   F chord diagramFF
e|-------1-----------|-------1-----------|-------1-----------|-------1-----------|
B|-------------------|-------------------|-------------------|-------------------|
G|-----2---2---------|-----2---2---------|-----2---2---------|-----2---2---------|
D|---3-------3-------|---3-------3-------|---3-------3-------|---3-------3-------|
A|-------------------|-------------------|-------------------|-------------------|
E|-------------------|-------------------|-------------------|-------------------|

And breathe
         F chord diagramFF                   F chord diagramFF                   F chord diagramFF                   F chord diagramFF
e|-------1-----------|-------1-----------|-------1-----------|-------1-----------|
B|-------------------|-------------------|-------------------|-------------------|
G|-----2---2---------|-----2---2---------|-----2---2---------|-----2---2---------|
D|---3-------3-------|---3-------3-------|---3-------3-------|---3-------3-------|
A|-------------------|-------------------|-------------------|-------------------|
E|-------------------|-------------------|-------------------|-------------------|

Breathe in the air
         F chord diagramFF                   F chord diagramFF                   F chord diagramFF                   F chord diagramFF
e|-------1-----------|-------1-----------|-------1-----------|-------1-----------|
B|-------------------|-------------------|-------------------|-------------------|
G|-----2---2---------|-----2---2---------|-----2---2---------|-----2---2---------|
D|---3-------3-------|---3-------3-------|---3-------3-------|---3-------3-------|
A|-------------------|-------------------|-------------------|-------------------|
E|-------------------|-------------------|-------------------|-------------------|

Set your intentions
       Fsus4 chord diagramFsus4Fsus4               Fsus4 chord diagramFsus4Fsus4               Fsus4 chord diagramFsus4Fsus4               Fsus4 chord diagramFsus4Fsus4
e|-------1-----------|-------1-----------|-------1-----------|-------1-----------|
B|-------------------|-------------------|-------------------|-------------------|
G|-----3---3---------|-----3---3---------|-----3---3---------|-----3---3---------|
D|---3-------3-------|---3-------3-------|---3-------3-------|---3-------3-------|
A|-------------------|-------------------|-------------------|-------------------|
E|-------------------|-------------------|-------------------|-------------------|

Dream with care
         F chord diagramFF                   F chord diagramFF                   F chord diagramFF                   F chord diagramFF
e|-------1-----------|-------1-----------|-------1-----------|-------1-----------|
B|-------------------|-------------------|-------------------|-------------------|
G|-----2---2---------|-----2---2---------|-----2---2---------|-----2---2---------|
D|---3-------3-------|---3-------3-------|---3-------3-------|---3-------3-------|
A|-------------------|-------------------|-------------------|-------------------|
E|-------------------|-------------------|-------------------|-------------------|

Tomorrow's a new day for everyone
         Bb chord diagramBbBb                  Bb chord diagramBbBb                  Bb chord diagramBbBb                  Bb chord diagramBbBb
e|-------------------|-------------------|-------------------|-------------------|
B|-------3-----------|-------3-----------|-------3-----------|-------3-----------|
G|-----3---3---------|-----3---3---------|-----3---3---------|-----3---3---------|
D|---3-------3-------|---3-------3-------|---3-------3-------|---3-------3-------|
A|-------------------|-------------------|-------------------|-------------------|
E|-------------------|-------------------|-------------------|-------------------|

         F chord diagramFF                   F chord diagramFF                   F chord diagramFF                   F chord diagramFF
e|-------1-----------|-------1-----------|-------1-----------|-------1-----------|
B|-------------------|-------------------|-------------------|-------------------|
G|-----2---2---------|-----2---2---------|-----2---2---------|-----2---2---------|
D|---3-------3-------|---3-------3-------|---3-------3-------|---3-------3-------|
A|-------------------|-------------------|-------------------|-------------------|
E|-------------------|-------------------|-------------------|-------------------|

A chord diagramAA brand new moon and brand new sun
         Bb chord diagramBbBb                  Bb chord diagramBbBb                  Bb chord diagramBbBb                  Bb chord diagramBbBb
e|-------------------|-------------------|-------------------|-------------------|
B|-------3-----------|-------3-----------|-------3-----------|-------3-----------|
G|-----3---3---------|-----3---3---------|-----3---3---------|-----3---3---------|
D|---3-------3-------|---3-------3-------|---3-------3-------|---3-------3-------|
A|-------------------|-------------------|-------------------|-------------------|
E|-------------------|-------------------|-------------------|-------------------|

         F chord diagramFF                   F chord diagramFF                   F chord diagramFF                   F chord diagramFF
e|-------1-----------|-------1-----------|-------1-----------|-------1-----------|
B|-------------------|-------------------|-------------------|-------------------|
G|-----2---2---------|-----2---2---------|-----2---2---------|-----2---2---------|
D|---3-------3-------|---3-------3-------|---3-------3-------|---3-------3-------|
A|-------------------|-------------------|-------------------|-------------------|
E|-------------------|-------------------|-------------------|-------------------|


So follow, follow the sun,
The direction of the bird,
The direction of love

Breathe, breathe in the air,
Cherish this moment,
Cherish this breath
Tomorrow is a new day for everyone,
Brand new moon, brand new sun

When you feel life coming down on you,
Like a heavy weight
When you feel this crazy society,
Adding to the strain
Take a stroll to the nearest waters
And remember your place
Many moons have risen and fallen long, long before you came

So which way is the wind blowin',
And what does your heart say?
So follow, follow the sun,
And which way the wind blows
When this day is done