Log in

One click and you are in

Login with Facebook Login with Google

Why sign up and log in

Guitar Tabs Explorer
Mariah Carey tabs for Someday

Guitar tabs

Mariah Carey : Someday

Tuning: Standard


Guitar Solo: (2:49)
|---------------------------------------------------------------------------|
|-17b19=--17-14-------------------------------------------------------------|
|----------------16b18~~---13--11b13rp9-11:--9--------------------x--x-----|
|-----------------------------------------------11-11p9----9~\-----x--x-----|
|-------------------------------------------------------11------------------|
|---------------------------------------------------------------------------|

|----------------------------|
|----9--9----------9-9-9-----|
|----9--9----------9-9-9-----|
|-11------11-9-11--------11~-|
|----------------------------|
|----------------------------|

|------------------------------------------------9---|
|----------------------------------------------9-----|
|--------------------------------------9-11b13-------|
|-9-------------------------------9h11---------------|
|---11--9s7-7h9-7h9-9s11-9~--9h11--------------------|
|----------------------------------------------------|

|-12b14=\------------------------9---14b16==-------|
|------------------------------9-------------------|
|---------------------9-11b13----------------------|
|------------------11------------------------------|
|--------------------------------------------------|
|---------9\---------------------------------------|

🏷Legend:
b:   bend
~:   vibrato
r:   release
p:   pull-off
::  pinch harmonic
s:   slide

Other versions of Someday

SomedayChords
Someday (Ver. 2)Chords

Almost there ...

Sign in to get your own page with links to favourite songs and more. You are just one click away...

Login with Facebook Login with Google