Log in

One click and you are in

Login with Facebook Login with Google

Why sign up and log in

Guitar Tabs Explorer
Mariah Carey bass tabs for All i want for christmas is you (Ver. 2)

All I Want For Christmas Is You bass tab by Mariah Carey (Ver. 2)

Mariah Carey bass tabs for All i want for christmas is you (Ver. 2)

Bass tabs

Mariah Carey
All I Want For Christmas Is You (For Bass Guitar)

Tuning: Standard

 Intro: (0:56)
G|--------------------|
D|-0-0--0-0--0-0--0---|
A|--------------------|
E|--------------------|

 Verse 1: (0:57)
G|------------------------|------------------------|------------|
D|------------------------|------------------------|------------|
A|------------------------|----------------0--1--2-|-3--3--3--3-|
E|-3--3--3--3--3--3--3--3-|-3--3--3--3--3----------|------------|

G|------------|------------------------|------------------------|
D|------------|-1--1--1--1--1--1--1--1-|------------------------|
A|-3--3--3--3-|------------------------|------------------------|
E|------------|------------------------|-3--3--3--3--3--3--3--3-|

G|------------------------|------------------------|------------|
D|------------------------|------------------------|-1--1--1--1-|
A|----------------0--1--2-|-3--3--3--3--3--3--3--5-|------------|
E|-3--3--3--3--3----------|------------------------|------------|

G|------------|
D|-1--1--1--1-|
A|------------|
E|------------|

 Chorus: (1:23)
G|------------------------|------------------------|------------|
D|------------------------|-2--2--2--2--2--2--1--1-|-0--0--0--0-|
A|-------------------2--2-|------------------------|------------|
E|-3--3--3--3--3--3-------|------------------------|------------|

G|-------------------------------------|------------------------|
D|-2--2--2------------------0--0--0--0-|-------------2--2--2--2-|
A|--------------0--0--0--0-------------|------------------------|
E|----------3-0------------------------|-3--3--3--3-------------|

G|-------------------------------|
D|----------------0-0--0-0--0-0--|
A|-0--0--0--0--------------------|
E|-------------------------------|

 Verse 2: (1:42)
G|------------------------|-----------------------|---------------|
D|------------------------|--------------0--------|---------------|
A|------------------------|------------------0--2-|-3--3--3--3--3-|
E|-3--3--3--3--3--3--3--3-|-3--3--3--3--3-3-------|---------------|

G|------------|------------------------|------------------------|
D|------------|-1--1--1--1--1--1--1--1-|------------------------|
A|-3--3--3--3-|------------------------|------------------------|
E|------------|------------------------|-3--3--3--3--3--3--3--3-|

G|------------------------|---------------------|------------|
D|------------------------|-------------------0-|-1--1--1--1-|
A|----------------0-2-2-3-|-3--3--3--3--3--3----|------------|
E|-3--3--3--3--3-3-3-3-3--|---------------------|------------|

G|------------|
D|-1--1--1--1-|
A|------------|
E|------------|

 Chorus: (2:07)
G|------------------------|------------------------|------------|
D|------------------------|-2--2--2--2--2--2--1--1-|-0--0--0--0-|
A|-------------------2--2-|------------------------|------------|
E|-3--3--3--3--3--3-------|------------------------|------------|

G|-------------------------------------|------------------------|
D|-2--2--2------------------0--0--0--0-|-------------2--2--2--2-|
A|--------------0--0--0--0-------------|------------------------|
E|----------3-0------------------------|-3--3--3--3-------------|

G|-------------------------------|
D|-------------0--0--0--0--------|
A|-0--0--0--0--------------------|
E|-------------------------------|

 Interlude: (2:27)
G|------------------------|------------------------|------------|
D|------------------------|------------------------|------------|
A|-2--2--2--2--2--0-------|------------------------|-2--2--2--2-|
E|-------------------3--2-|-0--0--0--0--0--0--0--0-|------------|

G|------------|------------------------|------------------------|
D|------------|------------------------|-1--1--1--1--1--1--1--1-|
A|-2--2--2--2-|------------------------|------------------------|
E|------------|-0--0--0--0--0--0--0--0-|------------------------|

G|-------------------------------------------------|------------|
D|-0--0--0--0--2--2--2--2--------------------------|-0--0--0--0-|
A|--------------------------0--0--0--0--0--0--0--0-|------------|
E|------------------------0------------------------|------------|

G|-------------|
D|-0--0--0--0--|
A|-------------|
E|-------------|

 Verse 3: (2:52)
G|------------------------|------------------------|------------|
D|------------------------|------------------------|------------|
A|------------------------|----------------0--1--2-|-3--3--3--3-|
E|-3--3--3--3--3--3--3--3-|-3--3--3--3--3----------|------------|

G|-----------|------------------------|------------------------|
D|-----------|-1--1--1--1--1--1--1--1-|------------------------|
A|-3--3--3-3-|------------------------|-------------------2--2-|
E|--------3--|------------------------|-3--3--3--3--3--3-------|

G|------------------------|------------------------|------------|
D|-2--2--2--2--2--2--1--1-|-0--0--0--0--2--2--2--2-|------------|
A|------------------------|------------------------|-0--0--0--0-|
E|------------------------|------------------------|------------|

G|-------|
D|-0--0--|
A|-------|
E|-------|
--

 (3:19)
G|-----------------|
D|-0-0--0-0--0-0---|
A|-----------------|
E|-----------------|

 Outro: (3:21)
G|------------------------|------------------------|
D|------------------------|-------------0--0--0--0-|
A|------------------------|-0--0--0--0-------------|
E|-3--3--3--3--0--0--0--0-|------------------------|

Other versions of All I Want For Christmas Is You

All I want for christmas is youBass tabs

Almost there ...

Sign in to get your own page with links to favourite songs and more. You are just one click away...

Login with Facebook Login with Google