Log in

One click and you are in

Login with Facebook Login with Google

Why sign up and log in

Guitar Tabs Explorer
Mariah Carey bass tabs for All i want for christmas

Bass tabs

Mariah Carey
All I Want For Christmas Is You (For Bass Guitar)

Tuning: Standard
Transcribed by Soch H.
Email me at vhhendrixcrazy@yahoo.com for questions or comments!
Intro: (0:56)
|--------------------|
|--------------------|
|-5-5--5-5--5-5--5---|
|--------------------|


Verse 1: (0:57)
|------------------------|------------------------|------------|
|------------------------|------------------------|------------|
|------------------------|----------------0--1--2-|-3--3--3--3-|
|-3--3--3--3--3--3--3--3-|-3--3--3--3--3----------|------------|

|------------|------------------------|------------------------|
|------------|------------------------|------------------------|
|-3--3--3--3-|-6--6--6--6--6--6--6--6-|------------------------|
|------------|------------------------|-3--3--3--3--3--3--3--3-|

|------------------------|------------------------|------------|
|------------------------|------------------------|------------|
|----------------0--1--2-|-3--3--3--3--3--3--3--5-|-6--6--6--6-|
|-3--3--3--3--3----------|------------------------|------------|

|------------|
|------------|
|-6--6--6--6-|
|------------|

Chorus: (1:23)
|------------------------|------------------------|------------|
|------------------------|------------------------|------------|
|-------------------2--2-|-7--7--7--7--7--7--6--6-|-5--5--5--5-|
|-3--3--3--3--3--3-------|------------------------|------------|

|-------------------------------------|------------------------|
|-------------------------------------|------------------------|
|-7--7--7------------------5--5--5--5-|-------------7--7--7--7-|
|----------3-0-5--5--5--5-------------|-3--3--3--3-------------|

|-------------------------------|
|-------------------------------|
|----------------5-5--5-5--5-5--|
|-5--5--5--5--------------------|


Verse 2: (1:42)
|------------------------|-----------------------|---------------|
|------------------------|-----------------------|---------------|
|------------------------|--------------5---0--2-|-3--3--3--3--3-|
|-3--3--3--3--3--3--3--3-|-3--3--3--3--3-3-------|---------------|

|------------|------------------------|------------------------|
|------------|------------------------|------------------------|
|-3--3--3--3-|-6--6--6--6--6--6--6--6-|------------------------|
|------------|------------------------|-3--3--3--3--3--3--3--3-|

|------------------------|---------------------|------------|
|------------------------|---------------------|------------|
|----------------0-2-2-3-|-3--3--3--3--3--3--5-|-6--6--6--6-|
|-3--3--3--3--3-3-3-3-3--|---------------------|------------|

|------------|
|------------|
|-6--6--6--6-|
|------------|


Chorus: (2:07)
|------------------------|------------------------|------------|
|------------------------|------------------------|------------|
|-------------------2--2-|-7--7--7--7--7--7--6--6-|-5--5--5--5-|
|-3--3--3--3--3--3-------|------------------------|------------|

|--------------------------------------|------------------------|
|--------------------------------------|------------------------|
|-7--7--7-------------------5--5--5--5-|-------------7--7--7--7-|
|---------0-3-0-5--5--5--5-------------|-3--3--3--3-------------|

|-------------------------------|
|-------------------------------|
|-------------5--5--5--5--------|
|-5--5--5--5--------------------|

Interlude: (2:27)
|------------------------|------------------------|------------|
|------------------------|------------------------|------------|
|-2--2--2--2--2--0-------|------------------------|-2--2--2--2-|
|-------------------3--2-|-0--0--0--0--0--0--0--0-|------------|

|------------|------------------------|------------------------|
|------------|------------------------|------------------------|
|-2--2--2--2-|------------------------|-6--6--6--6--6--6--6--6-|
|------------|-0--0--0--0--0--0--0--0-|------------------------|

|-------------------------------------------------|------------|
|-------------------------------------------------|------------|
|-5--5--5--5--7--7--7--7--------------------------|-5--5--5--5-|
|------------------------0-5--5--5--5--5--5--5--5-|------------|

|-------------|
|-------------|
|-5--5--5--5--|
|-------------|


Verse 3: (2:52)
|------------------------|------------------------|------------|
|------------------------|------------------------|------------|
|------------------------|----------------0--1--2-|-3--3--3--3-|
|-3--3--3--3--3--3--3--3-|-3--3--3--3--3----------|------------|

|-----------|------------------------|------------------------|
|-----------|------------------------|------------------------|
|-3--3--3-3-|-6--6--6--6--6--6--6--6-|-------------------2--2-|
|--------3--|------------------------|-3--3--3--3--3--3-------|

|------------------------|------------------------|------------|
|------------------------|------------------------|------------|
|-7--7--7--7--7--7--6--6-|-5--5--5--5--7--7--7--7-|------------|
|------------------------|------------------------|-5--5--5--5-|

|-------|
|-------|
|-5--5--|
|-------|
--

(3:19)
|-----------------|
|-----------------|
|-5-5--5-5--5-5---|
|-----------------|


Outro: (3:21)
|------------------------|------------------------|
|------------------------|------------------------|
|------------------------|-------------5--5--5--5-|
|-3--3--3--3--0--0--0--0-|-5--5--5--5-------------|
(Repeat Till Fade Out)

Other versions of All I Want For Christmas

All I want for christmas is youBass tabs
All I want for christmas is you (Ver. 2)Bass tabs

Almost there ...

Sign in to get your own page with links to favourite songs and more. You are just one click away...

Login with Facebook Login with Google