Log in

One click and you are in

Login with Facebook Login with Google

Why sign up and log in

Guitar Tabs Explorer
The Cardigans guitar tabs for Rise and shine

Guitar tabs with lyrics

  • Capo on 2nd
Tuning: Standard (E A D G B E)


Chords Used:

A chord diagramD MajorD      xx0232
A chord diagramGmaj7Gmaj7  320002
A chord diagramE minorEm     022000
A chord diagramC#m7b5C#m7b5 x4545x
A chord diagramF#m7F#m7   242222
A chord diagramB minorBm     x24432
A chord diagramG MajorG      320003
A chord diagramA major 6A6     x02222
Bm/F#  224432
A chord diagramA majorA      x02220
Intro:

A chord diagramD MajorD A chord diagramGmaj7Gmaj7 A chord diagramE minorEm A chord diagramE minorEm x4

e|-------------------------------------|
B|-------------------------------------|
D|--11-11-9p11-11-11--11-11-11-9p11-11-|
G|-------------------------------------|
A|-------------------------------------|
E|-------------------------------------| x8

  A chord diagramC#m7b5C#m7b5
e|-----|
B|--5--|
D|--4--|
G|--5--|
A|--4--|
E|-----|

Verse:

  A chord diagramF#m7F#m7
e|---5--5--5---|
B|----7--7--7--|
D|-6---6--6--6-|
G|-------------|
A|-------------|
E|-------------|
  I want to be alone for a

  A chord diagramB minorBm
e|---2--2--2---|
B|----3--3--3--|
D|-4---4--4--4-|
G|-------------|
A|-------------|
E|-------------|
  while

  A chord diagramE minorEm
e|---3--3--3---|
B|----3--3--3--|
D|-----4--4--4-|
G|-5-----------|
A|-------------|
E|-------------|
  I want earth to breathe to

  A chord diagramG MajorG      A chord diagramA major 6A6
e|---2-----------0h2-|
B|----3--------------|
D|-0---3-0h2p4-0-----|
G|-------------------|
A|-------------------|
E|-------------------|
  me

  A chord diagramF#m7F#m7
e|---5--5--5---|
B|----7--7--7--|
D|-6---6--6--6-|
G|-------------|
A|-------------|
E|-------------|
  I want the waves to grow

  A chord diagramB minorBm
e|---2--2--2---|
B|----3--3--3--|
D|-4---4--4--4-|
G|-------------|
A|-------------|
E|-------------|
  loud

  A chord diagramE minorEm
e|---3--3--3---|
B|----3--3--3--|
D|-----4--4--4-|
G|-5-----------|
A|-------------|
E|-------------|
I want the sun to bleed

  A chord diagramG MajorG
e|---2---|
B|----3--|
D|-0---3-|
G|-------|
A|-------|
E|-------|
down

A chord diagramA major 6A6       A chord diagramD MajorD   Bm/F#
To bleed down


Pre-Chorus:

A chord diagramE minorEm      A chord diagramGmaj7Gmaj7    A chord diagramD MajorD   Bm/F#
See the waves go down
A chord diagramE minorEm      A chord diagramGmaj7Gmaj7 A chord diagramD MajorD   Bm/F#
See the moon alone
A chord diagramE minorEm         A chord diagramGmaj7Gmaj7    A chord diagramA majorA
I raise my head and whisper


Chorus:

A chord diagramD MajorD        A chord diagramGmaj7Gmaj7
Rise and shine (rise and shine)
A chord diagramE minorEm       A chord diagramA majorA
Rise and shine, my sister
A chord diagramD MajorD        A chord diagramGmaj7Gmaj7
Rise and shine (rise and shine)
A chord diagramE minorEm       A chord diagramA majorA
Rise and shine, my sister
A chord diagramD MajorD        A chord diagramGmaj7Gmaj7
Rise and shine (rise and shine)
A chord diagramE minorEm       A chord diagramA majorA
Rise and shine, my sister
A chord diagramD MajorD        A chord diagramGmaj7Gmaj7
Rise and shine (rise and shine)
A chord diagramE minorEm       A chord diagramA majorA
Rise and shine

A chord diagramD MajorD A chord diagramGmaj7Gmaj7 A chord diagramE minorEm A chord diagramE minorEm x2

e|-------------------------------------|
B|-------------------------------------|
D|--11-11-9p11-11-11--11-11-11-9p11-11-|
G|-------------------------------------|
A|-------------------------------------|
E|-------------------------------------| x4

  A chord diagramC#m7b5C#m7b5
e|-----|
B|--5--|
D|--4--|
G|--5--|
A|--4--|
E|-----|


Verse 2:

  A chord diagramF#m7F#m7
e|---5--5--5---|
B|----7--7--7--|
D|-6---6--6--6-|
G|-------------|
A|-------------|
E|-------------|
  I want to see the wounded

  A chord diagramB minorBm
e|---2--2--2---|
B|----3--3--3--|
D|-4---4--4--4-|
G|-------------|
A|-------------|
E|-------------|
  moon

  A chord diagramE minorEm
e|---3--3--3---|
B|----3--3--3--|
D|-----4--4--4-|
G|-5-----------|
A|-------------|
E|-------------|
  I want the sea to break

  A chord diagramG MajorG      A chord diagramA major 6A6
e|---2-----------0h2-|
B|----3--------------|
D|-0---3-0h2p4-0-----|
G|-------------------|
A|-------------------|
E|-------------------|
  through

  A chord diagramF#m7F#m7
e|---5--5--5---|
B|----7--7--7--|
D|-6---6--6--6-|
G|-------------|
A|-------------|
E|-------------|
  I want it all to be gone

  A chord diagramB minorBm
e|---2--2--2---|
B|----3--3--3--|
D|-4---4--4--4-|
G|-------------|
A|-------------|
E|-------------|
  tomorrow

  A chord diagramE minorEm
e|---3--3--3---|
B|----3--3--3--|
D|-----4--4--4-|
G|-5-----------|
A|-------------|
E|-------------|
  So I've come to say

  A chord diagramG MajorG
e|---2---|
B|----3--|
D|-0---3-|
G|-------|
A|-------|
E|-------|
  goodbye

A chord diagramA major 6A6         A chord diagramD MajorD   Bm/F#
To say goodbye


Pre-Chorus 2:

A chord diagramE minorEm      A chord diagramGmaj7Gmaj7    A chord diagramD MajorD   Bm/F#
See the waves go down
A chord diagramE minorEm      A chord diagramGmaj7Gmaj7 A chord diagramD MajorD   Bm/F#
See the moon alone
A chord diagramE minorEm         A chord diagramGmaj7Gmaj7    A chord diagramA majorA
I raise my head and whisper


Chorus 2:

A chord diagramD MajorD        A chord diagramGmaj7Gmaj7
Rise and shine (rise and shine)
A chord diagramE minorEm       A chord diagramA majorA
Rise and shine, my sister
A chord diagramD MajorD        A chord diagramGmaj7Gmaj7
Rise and shine (rise and shine)
A chord diagramE minorEm       A chord diagramA majorA
Rise and shine, my sister
A chord diagramD MajorD        A chord diagramGmaj7Gmaj7
Rise and shine (rise and shine)
A chord diagramE minorEm       A chord diagramA majorA
Rise and shine, my sister
A chord diagramD MajorD        A chord diagramGmaj7Gmaj7
Rise and shine (rise and shine)
A chord diagramE minorEm       A chord diagramA majorA
Rise and shine


Outro:

A chord diagramD MajorD A chord diagramGmaj7Gmaj7 A chord diagramE minorEm A chord diagramE minorEm x2

e|-------------------------------------|
B|-------------------------------------|
D|--11-11-9p11-11-11--11-11-11-9p11-11-|
G|-------------------------------------|
A|-------------------------------------|
E|-------------------------------------| x4

A chord diagramD MajorD        A chord diagramGmaj7Gmaj7  A chord diagramE minorEm A chord diagramE minorEm
Rise and shine
A chord diagramD MajorD        A chord diagramGmaj7Gmaj7  A chord diagramE minorEm A chord diagramE minorEm
Rise and shine

e|-14-12-10-9-9p10-7-|
B|-------------------|
D|-------------------|
G|-------------------|
A|-------------------|
E|-------------------|

A chord diagramD MajorD A chord diagramGmaj7Gmaj7 A chord diagramE minorEm

  A chord diagramA majorA      A chord diagramD MajorD
Rise and shine


***************

| h hammer on
| p pull off

***************

Other versions of Rise And Shine

Rise and shineChords

Almost there ...

Sign in to get your own page with links to favourite songs and more. You are just one click away...

Login with Facebook Login with Google