Log in

One click and you are in

Login with Facebook Login with Google

Why sign up and log in

Guitar Tabs Explorer
Car Seat Headrest bass tabs for Not what i needed

Not What I Needed bass tab - Car Seat Headrest

Car Seat Headrest bass tabs for Not what i needed

Bass tabs with lyrics

  • Difficulty: Beginner
Tuning: Standard (E A D G)


Verse:
     i have nothing but questions             i need
G|--------------------------------------------------------------------------|
D|--------------------------------------------------------------------------|
A|----------------0-0-0-0-0-0-0-0-0---------------4-4-4-4-4-4-4-4-----------|
E|-0-0-0-0-0-0-0-0-----------------2-2-2-2-2-2-2-2--------------------------|

  answers, those would fill me up
G|---------------------------------------------------------------------------|
D|---------------------------------------------------------------------------|
A|-0-0-0-0-0-0-0-0-2-2-2-2-2-2-2-2-------------------------------------------|
E|---------------------------------2-2-2-2-2-2-2-2-2-2-2-2-2-2-2-2-----------|

  i know when i'm being catered to! i know when i'm being catered to,
G|--------------------------------------------------------------------------|
D|--------------------------------------------------------------------------|
A|----------------0-0-0-0-0-0-0-0-0---------------4-4-4-4-4-4-4-4-----------|
E|-0-0-0-0-0-0-0-0-----------------2-2-2-2-2-2-2-2--------------------------|

  i will not settle for the lowest common denominator!
G|---------------------------------------------------------------------------|
D|---------------------------------------------------------------------------|
A|-0-0-0-0-0-0-0-0-2-2-2-2-2-2-2-2-------------------------------------------|
E|---------------------------------2-2-2-2-2-2-2-2-2-2-2-2-2-2-2-2-----------|

  hello my fried, we've been waiting for you for a long time
G|--------------------------------------------------------------------------|
D|--------------------------------------------------------------------------|
A|----------------0-0-0-0-0-0-0-0-0---------------4-4-4-4-4-4-4-4-----------|
E|-0-0-0-0-0-0-0-0-----------------2-2-2-2-2-2-2-2--------------------------|

  we have reason to believe that your soul is just like ours
G|---------------------------------------------------------------------------|
D|---------------------------------------------------------------------------|
A|-0-0-0-0-0-0-0-0-2-2-2-2-2-2-2-2-------------------------------------------|
E|---------------------------------2-2-2-2-2-2-2-2-2-2-2-2-2-2-2-2-----------|

  did you ever get the feeling you were just a little different
G|--------------------------------------------------------------------------|
D|--------------------------------------------------------------------------|
A|----------------0-0-0-0-0-0-0-0-0---------------4-4-4-4-4-4-4-4-----------|
E|-0-0-0-0-0-0-0-0-----------------2-2-2-2-2-2-2-2--------------------------|

  well here's our webpage, you've finally found a home
G|---------------------------------------------------------------------------|
D|---------------------------------------------------------------------------|
A|-0-0-0-0-0-0-0-0-2-2-2-2-2-2-2-2-------------------------------------------|
E|---------------------------------2-2-2-2-2-2-2-2-2-2-2-2-2-2-2-2-----------|

good people give good advice
get a job, eat an apple, it'll work itself out
it's a phase (it's a phase!)
it's chemistry (it's chemistry!)
it's your own fault (it's your own fault!)
well don't listen to us
we're just people too


Verse:

     i've been waiting all my life
G|--------------------------------------------------------------------------|
D|--------------------------------------------------------------------------|
A|----------------0-0-0-0-0-0-0-0-0-4-4-4-4-4-4-4-4-4-4-4-4-4-4-4-4---------|
E|-0-0-0-0-0-0-0-0----------------------------------------------------------|

  i've been waiting for some real good porn.       something
G|---------------------------------------------------------------------------|
D|---------------------------------------------------------------------------|
A|-0-0-0-0-0-0-0-0-2-2-2-2-2-2-2-2-------------------------------------------|
E|---------------------------------2-2-2-2-2-2-2-2-2-2-2-2-2-2-2-2-----------|

  with meaning, something fulfilling
G|--------------------------------------------------------------------------|
D|--------------------------------------------------------------------------|
A|----------------0-0-0-0-0-0-0-0-0---------------4-4-4-4-4-4-4-4-----------|
E|-0-0-0-0-0-0-0-0-----------------2-2-2-2-2-2-2-2--------------------------|

  i'd like to make my shame count for something
G|---------------------------------------------------------------------------|
D|---------------------------------------------------------------------------|
A|-0-0-0-0-0-0-0-0-2-2-2-2-2-2-2-2-------------------------------------------|
E|---------------------------------2-2-2-2-2-2-2-2-2-2-2-2-2-2-2-2-----------|

   i feel so empty trying to explain this
G|--------------------------------------------------------------------------|
D|--------------------------------------------------------------------------|
A|----------------0-0-0-0-0-0-0-0-0---------------4-4-4-4-4-4-4-4-----------|
E|-0-0-0-0-0-0-0-0-----------------2-2-2-2-2-2-2-2--------------------------|

      his name is william onyeabor, he's from the 70s
G|---------------------------------------------------------------------------|
D|---------------------------------------------------------------------------|
A|-0-0-0-0-0-0-0-0-2-2-2-2-2-2-2-2-------------------------------------------|
E|---------------------------------2-2-2-2-2-2-2-2-2-2-2-2-2-2-2-2-----------|

 and when i wake up in the morning, there are people sleeping on my couch, well
G|--------------------------------------------------------------------------|
D|--------------------------------------------------------------------------|
A|----------------0-0-0-0-0-0-0-0-0---------------4-4-4-4-4-4-4-4-----------|
E|-0-0-0-0-0-0-0-0-----------------2-2-2-2-2-2-2-2--------------------------|

  i'll have something to say about that one
G|---------------------------------------------------------------------------|
D|---------------------------------------------------------------------------|
A|-0-0-0-0-0-0-0-0-2-2-2-2-2-2-2-2-------------------------------------------|
E|---------------------------------2-2-2-2-2-2-2-2-2-2-2-2-2-2-2-2-----------|


free people give free advice
let go of the pain, let go of the fear
but if I let go of that
what will still be here?
will I find out
that I am just people too?


Bridge:

(should i say that one more time)

um yeah i mean uh the intent was to sort of go back to these periods and
and revisit them a little bit, especially with teens of style
you know with teens of denial it was sort of contemporaneous when i was writing it
you know, and what i was experiencing at the time
and uh i guess i was just out of my teenage years when i was writing things for teens of denial
i didn't really feel like anything had changed
so um yeah i guess, you know, the two of those albums together are sort of
they're both an exploration of past feelings and how they connect to the present
and what i'm doing in the present tense
i'm sorry, you'll have to say that again
the connection must be bad
um, can you try one more time?
ahh, um when I was starting out
i uh recorded vocals in my car sometimes, uh just for the sake of privacy

Almost there ...

Sign in to get your own page with links to favourite songs and more. You are just one click away...

Login with Facebook Login with Google