Log in

One click and you are in

Login with Facebook Login with Google

Why sign up and log in

Guitar Tabs Explorer
Captain Beefheart And His Magic Band bass tabs for Suction prints

Suction Prints bass tab by Captain Beefheart And His Magic Band

Captain Beefheart And His Magic Band bass tabs for Suction prints

Bass tabs

Intro:
G|-------------------------------------------------------|
D|-------------------------------------------------------|
A|-------------------------------------------------------|
E|--0~--0~--0-5-5-5---0~--0~--0-5-5-5---0~--0~--0-5-5-5--|
Verse:
G|-------------------------------------------------------------|
D|-------------------------------------------------------------|
A|-------------------------------------------------------------|
E|--0~-3~-0-5~-3---7-7--6-6--5~-3---0~-3~-0-5~-3---0~-3~-0-5~--|

G|----------------------------------------------------------|
D|----------------------------------------------------------|
A|----------------------------------------------------------|
E|--0-5-5--0-5-5--0-5-5--0-5-5--0-5-5--0-5-5--0-5-5--0-5-5--|

G|------------------------------------------|
D|------------------------------------------|
A|------------------------------------------|
E|--0-3--0-3--0-3--0-3--0-3--0-3--0-3--0-3--|

G|-------------------------------------------------------------|
D|-------------------------------------------------------------|
A|-------------------------------------------------------------|
E|--0-5-5--0-5-5--0-5-5--0-5-5--0-5-5--0-5-5--0-5-5--0-5-5/-\--|

G|-------------------------------------------------------------|
D|-------------------------------------------------------------|
A|-------------------------------------------------------------|
E|--0~-3~-0-5~-3---0~-3~-0-5~-3---0~-3~-0-5~-3---0~-3~-0-5~-3--|


Break/Pause:
G|--------------------------------------------------|
D|--------------------------------------------------|
A|--------------------------------------------------|
E|--0--0--0--0--0--0--0--0--0--0--0--0--0--0--0--0--|

G|--------------------------------------------------|
D|--------------------------------------------------|
A|--------------------------------------------------|
E|--0--0--0--0--0--0--0--0--0--0--0--0--0--0--0--0--|

G|-------------------------------------------------------------------|
D|-------------------------------------------------------------------|
A|----7---7---7---7---7---7---7---7---7---7---7---7---7---7---7---7--|
E|--0---0---0---0---0---0---0---0---0---0---0---0---0---0---0---0----|

G|----------------------------------------------------------|
D|----------------------------------------------------------|
A|----7---7---7---7---7---7---7---7----------------4--5--6--|
E|--0---0---0---0---0---0---0---0---0--2--3--4--5-----------|

G|-------------------------------------------------------------------|
D|-------------------------------------------------------------------|
A|----7---7---7---7---7---7---7---7---7---7---7---7---7---7---7---7--|
E|--0---0---0---0---0---0---0---0---0---0---0---0---0---0---0---0----|

G|---------------------------------|
D|---------------------------------|
A|-------------------5-5--6-6--7\--|
E|--3-3--3--3-3-4-5----------------|

G|-------------------------------------------------------------|
D|-------------------------------------------------------------|
A|-------------------------------------------------------------|
E|--0~-3~-0-5~-3---0~-3~-0-5~-3---0~-3~-0-5~-3---0~-3~-0-5~-3--|

G|-------------------------------------------------------------|
D|-------------------------------------------------------------|
A|-------------------------------------------------------------|
E|--0~-3~-0-5~-3---0~-3~-0-5~-3---0~-3~-0-5~-3---0~-3~-0-5~-3--|

G|---------------------------------------------------------------------------------------------|
D|---------------------------------------------------------------------------------------------|
A|--5--0-5-5-0-5-----------5--0-5-5-0-5-----------5--0-5-5-0-5-----------5--0-5-5-0-5----------|
E|---------------5-3-3-3----------------5-3-3-3----------------5-3-3-3----------------5-3-3-3--|

G|--------------------------------------------------------------------------|
D|--------------------------------------------------------------------------| (Drum Break)
A|--5--0-5-5-0-5-----------5--0-5-5-0-5-----------5--0-5-5-0-5-----------5--|
E|---------------5-3-3-3----------------5-3-3-3----------------5-3-3-3------|

G|---------------------------------------------------------------------------------------------|
D|---------------------------------------------------------------------------------------------|
A|--5--0-5-5-0-5-----------5--0-5-5-0-5-----------5--0-5-5-0-5-----------5--0-5-5-0-5----------|
E|---------------5-3-3-3----------------5-3-3-3----------------5-3-3-3----------------5-3-3-3--|

G|-----|
D|-----| (Pause for Guitar)
A|--5--|
E|-----|

G|-------------------------------13-11----------------------------------|
D|---------------------6-7-9-----------14-14-13-13-13-------------------|
A|----2-3-4-5-2-3-4--7-------7~--------------------------2-3-4-5-2-3-4--|
E|--3--------------------------------------------------3----------------|

G|-----------------------------------------------|
D|-----------------------------------------------|
A|--5--0-5-5-0-5-----------5--0-5-5-0-5----------|
E|---------------5-3-3-3----------------5-3-3-3--|

G|--------------------------------------------------------------------------|
D|--------------------------------------------------------------------------|
A|--5----------------------5----------------------5----------------------5--|
E|-----------------------5----------------------5----------------------5----|

G|--------|
D|--------|
A|--------|
E|--3--3--|

G|--------------------------------------------------|
D|--------------------------------------------------|
A|--------------------------------------------------|
E|--3--3--3--3--3--3--3--3--3--3--3--3--3--3--3--3--|

G|--------------------------------------------------|
D|--------------------------------------------------|
A|--------------------------------------------------|
E|--3--3--3--3--3--3--3--3--3--3--3--3--3--3--3--3--|

G|-----------------------------------------------------------------------|
D|-----------------------------------------------------------------------|
A|--5-6~--5-5-5-5-5---3-5~--3-3-3-3-3---1-3~--1-1-1-1-1---3~--1-1-1-1-1--|
E|-----------------------------------------------------------------------|

G|------------------------------------------------------------------------------|
D|------------------------------------------------------------------------------|
A|--5-6~--5-5-5-5-5---3-5~--3-3-3-3-3---1-3~--1-1-1-1-1-------------------------|
E|--------------------------------------------------------5-6~--5-5-5-5-5---3~--|

D|---------------------------------------------------------------------------------------------|
A|--5--0-5-5-0-5-----------5--0-5-5-0-5-----------5--0-5-5-0-5-----------5--0-5-5-0-5----------|
E|---------------5-3-3-3----------------5-3-3-3----------------5-3-3-3----------------5-3-3-3--|

G|-------------------------------------------------------------|
D|-------------------------------------------------------------|
A|-------------------------------------------------------------|
E|--0~-3~-0-5~-3---0~-3~-0-5~-3---0~-3~-0-5~-3---0~-3~-0-5~-3--|

Outro:
G|----------------------------------------------------------|
D|----------------------------------------------------------|
A|----------------------------------------------------------|
E|--0-5-5--0-5-5--0-5-5--0-5-5--0-5-5--0-5-5--0-5-5--0-5-5--|

G|------------------------------------------|
D|------------------------------------------|
A|------------------------------------------|
E|--0-3--0-3--0-3--0-3--0-3--0-3--0-3--0-3--|

G|----------------------------------------------------------|
D|----------------------------------------------------------|
A|----------------------------------------------------------|
E|--0-5-5--0-5-5--0-5-5--0-5-5--0-5-5--0-5-5--0-5-5--0-5-5--|

G|------------------------------------------|
D|------------------------------------------|
A|------------------------------------------|
E|--0-3--0-3--0-3--0-3--0-3--0-3--0-3--0-3--|

G|----------------------------------------------------------|
D|----------------------------------------------------------|
A|----------------------------------------------------------|
E|--0-5-5--0-5-5--0-5-5--0-5-5--0-5-5--0-5-5--0-5-5--0-5-5--|


************************************

| ~ Vibrato
| / Slide up
| \ Slide down

Almost there ...

Sign in to get your own page with links to favourite songs and more. You are just one click away...

Login with Facebook Login with Google