Log in

One click and you are in

Login with Facebook Login with Google

Why sign up and log in

Guitar Tabs Explorer
Captain Beefheart tabs for Electricity

Guitar tabs

INTRO/RIFF
E-------------------------------------------------------------|
B-------------------------------------------------------------|
G-------------------------------------------------------------|
D--10-h12--10-h12--12--10--8-----------8----------------------|
A-----------------------------8--8--10--10--10--12--10--8--10-|
E-------------------------------------------------------------|

 ------------------------------------------------------------|
 ------------------------------------------------------------|
 --10/12--12-12-12-12-12-12/10-10-10-10-10-10-10-10----------|
 --------------------------------------------------10--------|
 ----------------------------------------------------12/14---|
 ------------------------------------------------------------|

 -----------------------|--------------------|------|------|
 -----------------------|--------------------|------|------|
 -12--12-12/10-10-9-9/10|-12--10-10/9-9/7/10-|10-9-9|9-7-7-|
 -12--------------------|-12-----------------|10----|9-----|
 -10--------------------|-10-----------------|8-----|7-----|
 -----------------------|--------------------|------|------|

electricity                                                BASS
 ---------------------------------------------------------|-----------------|
 ---------------------------------------------------------|-----------------|
 --10/12-12-12-12-12-12/10-10-10-10-10--------------------|-----------------|
 --------------------------------------10-----------------|-----------------|
 ---------------------------------------------------------|10--10--10--10---|
 ---------------------------------------------------------|--10--10--10--10-|

 -----------------------------------------------------------------------------|
 -----------------------------------------------------------------------------|
 -----10----------10/12-10/12-10-12-10-12/15-12----10/12-10/12-10-12-10-12/15-|
 --12----12-------10/12-10/12-10-12-10-12/15-12----10/12-10/12-10-12-10-12/15-|
 ------------8/10------------------------------8/10---------------------------|
 -----------------------------------------------------------------------------|

----
----
-12-
-12-
----
----

 CHORUS
 ----------------------------|---------------------------|
 ----------------------------|---------------------------|
 -12-12--15-15--17-17--12-12-|---------------------------|
 -12-12--15-15--17-17--12-12-|-----------------------8---|
 -10-10--13-13--15-15--10-10-|-8/10-8/10-8/10-8-10-8--10-|
 ----------------------------|---------------------------|

Almost there ...

Sign in to get your own page with links to favourite songs and more. You are just one click away...

Login with Facebook Login with Google