Log in

One click and you are in

Login with Facebook Login with Google

Why sign up and log in

Guitar Tabs Explorer
Cannons bass tabs for Fire for you

Bass tabs

Tuning: Drop D (D A D G)

🎸 Intro:

G|-----------------|-----------------|-----------------|-----------------|
D|4---4--4--4--4-4-|4---4--4--4--4-4-|2---2--2--2--2-2-|2---2--2--2--2-2-|
A|-----------------|-----------------|-----------------|-----------------|
D|-----------------|-----------------|-----------------|-----------------|
G|4---4--4--4--4-4-|4---4--4--4--4-4-|7---7--7--7--7-7-|7---7--7---------|
D|-----------------|-----------------|-----------------|-----------------|
A|-----------------|-----------------|-----------------|-----------------|
D|-----------------|-----------------|-----------------|-----------------|


🎸 Verse 1:

G|------------------|------------------|------------------|------------------|
D|------------------|------------------|------------------|------------------|
A|------------------|------------------|------------------|------------------|
D|4---4---4-----2-4-|-4---4--2-4-------|2---2---2-----2-2-|-2---2--2-2-------|

G|------------------|------------------|------------------|---------------------|
D|------------------|------------------|------------------|---------------------|
A|2---2---2-----0-2-|-2---2--0-2-------|------------------|---------------------|
D|------------------|------------------|0---0---0-----0-0-|-0---0--0-0------0-2-|

G|------------------|------------------|------------------|------------------|
D|------------------|------------------|------------------|------------------|
A|------------------|------------------|------------------|------------------|
D|4---4---4-----2-4-|-4---4--2-4-------|2---2---2-----2-2-|-2---2--2-2-------|

G|------------------|------------------|------------------|------------------|
D|------------------|------------------|------------------|------------------|
A|2---2---2-----0-2-|-2---2--0-2-------|------------------|------------------|
D|------------------|------------------|0---0---0-----0-0-|-0---0--0---------|

🎸 Chorus:

G|----------------|----------------|----------------|----------------|
D|----------------|----------------|----------------|----------------|
A|2--2---2--2--2--|5--5---5--5--5--|----------------|4--4---4--4--4--|
D|----------------|----------------|7--7---7--7--7--|----------------|

G|----------------|----------------|----------------|----------------|
D|----------------|----------------|----------------|----------------|
A|2--2---2--2--2--|5--5---5--5--5--|----------------|4--4---4--------|
D|----------------|----------------|7--7---7--7--7--|----------------|

G|----------------|----------------|----------------|----------------|
D|----------------|----------------|----------------|----------------|
A|2--2---2--2--2--|5--5---5--5--5--|----------------|4--4---4--4--4--| x2
D|----------------|----------------|7--7---7--7--7--|----------------|

🎸 Verse 2:

G|------------------|------------------|------------------|------------------|
D|------------------|------------------|------------------|------------------|
A|------------------|------------------|------------------|------------------|
D|4---4---4-----2-4-|-4---4--2-4-------|2---2---2-----2-2-|-2---2--2-2-------|

G|------------------|------------------|------------------|---------------------|
D|------------------|------------------|------------------|---------------------|
A|2---2---2-----0-2-|-2---2--0-2-------|------------------|---------------------|
D|------------------|------------------|0---0---0-----0-0-|-0---0--0-0------0-2-|

G|------------------|------------------|------------------|------------------|
D|------------------|------------------|------------------|------------------|
A|------------------|------------------|------------------|------------------|
D|4---4---4-----2-4-|-4---4--2-4-------|2---2---2-----2-2-|-2---2--2-2-------|

G|------------------|------------------|------------------|------------------|
D|------------------|------------------|------------------|------------------|
A|2---2---2-----0-2-|-2---2--0-2-------|------------------|------------------|
D|------------------|------------------|0---0---0-----0-0-|-0---0--0---------|

🎸 Chorus:

G|----------------|----------------|----------------|----------------|
D|----------------|----------------|----------------|----------------|
A|2--2---2--2--2--|5--5---5--5--5--|----------------|4--4---4--4--4--| x8
D|----------------|----------------|7--7---7--7--7--|----------------|

🎸 Outro:

G|-----------------|-----------------|-----------------|-----------------|
D|4---4--4--4--4-4-|4---4--4--4--4-4-|2---2--2--2--2-2-|2---2--2--2--2-2-|
A|-----------------|-----------------|-----------------|-----------------|
D|-----------------|-----------------|-----------------|-----------------|

G|4---4--4--4--4-4-|4---4--4--4--4-4-|7---7--7--7--7-7-|7---7--7---------|
D|-----------------|-----------------|-----------------|-----------------|
A|-----------------|-----------------|-----------------|-----------------|
D|-----------------|-----------------|-----------------|-----------------|

************************************

Almost there ...

Sign in to get your own page with links to favourite songs and more. You are just one click away...

Login with Facebook Login with Google