Log in

One click and you are in

Login with Facebook Login with Google

Why sign up and log in

Guitar Tabs Explorer
Cannibal Corpse tabs for Pit of zombies

Guitar tabs

Cannibal Corpse
Pit of Zombies


Tuning: B-flat, with standard intervals between strings

Fig. 1 (intro/chorus)
a.
|--------------------------------------------------------------------|
|--------------------------------------------------------------------|
|--------------------------------------------------------------------|
|--7-7-----------------------------7-7-----------------6-33336-3333--|
|--5-5-----------------2-----2-----5-5-------------------------------|
|------4444444411111111--1111--1111----4444444411111111--------------|
|-----------------------------------------|---[chorus]----|
|-----------------------------------------|---[-only-]----|
|-----------------------------------------|---------------|
|--7-7------------------------------------|---------------|
|--5-5-----------------8-----7-----6------|--8---7---6----|
|------4444444477777777--7777--6666--5555-|----7---6---5--|


b.
|--------[1x in intro, 2x in chorus]-------|------------------------|
|------------------------------------------|------------------------|
|------------------------------------------|------------------------|
|------------------------------------------|------------------------|
|--11------10-----9-----8-----7-----6------|-11------10-----9-------|
|-----10~~~---9999--8888--7777--6666--5555-|----10~~~---9999--8888--|


Fig. 2
a. (2x in first verse)
|----------------------------------------------------------------------------|
|----------------------------------------------------------------------------|
|----------------------------------------------------------------------------|
|--------------------------5/8-85-5/8-------------------------5/8-8/11-118-|
|--------5-----6-5---6-5---------------------5-----6-5---6-5-----------------|
|--6tr7--3---0-4-3-0-4-3-0-3/6-63-3/6-6tr7--3---0-4-3-0-4-3-0-3/6-6/9---96-|

b.
|-----------------------------------------------------------------------|
|-----------------------------------------------------------------------|
|-----------------------------------------------------------------------|
|--------------------------5/8-85-5/8-------------------------5/8-8/11-|
|--------5-----6-5---6-5---------------------5-----6-5---6-5------------|
|--6tr7--3---0-4-3-0-4-3-0-3/6-63-3/6-6tr7--3---0-4-3-0-4-3-0-3/6-6/9--|

Fig. 3
|----------------------------------------------------------------------------|
|----------------------------------------------------------------------------|
|----------------------------------------------------------------------------|
|--118-8-118-8----------------------118-8-118-8---------5--9--8--12--12--|
|---------------------5---5-5---6-5------------------------------------------|
|---96-6--96-6-6tr7-3-0-3-3-0-4-3-0--96-6--96-6-6tr7-0--3--7--6--10--10--|

|--------------------------------------------------------------------|
|--------------------------------------------------------------------|
|--------------------------------------------------------------------|
|--118-8-118-8----------------------118-8-118-8---------5--9--8--|
|---------------------5---5-5---6-5----------------------------------|
|---96-6--96-6-6tr7-3-0-3-3-0-4-3-0--96-6--96-6-6tr7-0--3--7--6--|


Fig. 4
a. (gtr. 1 intro)
|----------------------------------------------------------------------------|
|----------------------------------------------------------------------------|
|----------------------------------------------------------------------------|
|--------------------------5/8-8-5/8-8-------------------------5/8-8-11-**8--|
|--------5-----6-5---8-5---------------------5-----6-5---8-5-----------------|
|--6tr7--3---0-4-3-0-6-3-0-3/6-6-3/6-6-6tr7--3---0-4-3-0-6-3-0-3/6-6--9-996--|

b.
|---------------------------------------------------|
|---------------------------------------------------|
|---------------------------------------------------|
|---------------------------------------------------|
|--------5-----6-5---8-5---6-5---8-5---6-5---8-5----|
|--6tr7--3---0-4-3-0-6-3-0-4-3-0-6-3-0-4-3-0-6-3-0--|

|---------------------------------------------------|
|---------------------------------------------------|
|---------------------------------------------------|
|--------------------------/11----------------------|
|--------5-----6-5---8-5----------------------------|
|--6tr7--3---0-4-3-0-6-3-0-/9----8tr9--7tr8--6tr7---|

|---------------------------------------------------|
|---------------------------------------------------|
|---------------------------------------------------|
|--------------------------85-5-85-5-85-5-85-5--|
|--------5-----6-5---8-5----------------------------|
|--6tr7--3---0-4-3-0-6-3-0-63-3-63-3-63-3-63-3--|

|---------------------------------------------------|
|---------------------------------------------------|
|---------------------------------------------------|
|--------------------------/11----------------------|
|--------5-----6-5---8-5---------------888888777777-|
|--6tr7--3---0-4-3-0-6-3-0-/9----8tr9---------------|


c.
|---------------------------------------------------|
|---------------------------------------------------|
|---------------------------------------------------|
|--------------------------85-5-54-4-4/5-5-5/8-8--|
|--------5-----6-5---8-5----------------------------|
|--6tr7--3---0-4-3-0-6-3-0-63-3-32-2-2/3-3-3/6-6--|


Fig. 5
a. (4x)
|--------------------------|
|--------------------------|
|--------------------------|
|--------11----------85-5-|
|--------------------------|
|--6tr7--9---0-66330-63-3-|

(repeat Fig. 4b)
(repeat Fig. 5a)

b. (4x)
|--------------------------|
|--------------------------|
|--------------------------|
|--------11----------/12---|
|--------------------------|
|--6tr7--9---0-66330-/10---|

keep it metal
ⓘ Guitar tab for 'Pit Of Zombies' by Cannibal Corpse, a death metal band formed in 1988 from Buffalo, New York

Almost there ...

Sign in to get your own page with links to favourite songs and more. You are just one click away...

Login with Facebook Login with Google