Log in

One click and you are in

Login with Facebook Login with Google

Why sign up and log in

Guitar Tabs Explorer
Cannibal Corpse tabs for Evidence in the furnace

Evidence In The Furnace tab by Cannibal Corpse

Cannibal Corpse tabs for Evidence in the furnace

Guitar tabs

cannibal corpse
evidence in the furnace
off of evisceration plague

tuning;on 6 string a# on 7 string b flat
tabber;ben chaffins
putting in standard so its easier to read
 this is what pat o brien is playing

intro
e-------------------------------------------------------------------------|
b-------------------------------------------------------------------------|
g-------------------------------------------------------------------------|
d-2---2------------------2-2-2-2-2-2-2-2----------------------------------|
a-0---0--000000000000000-0-0-0-0-0-0-0-0-666666-00-1111-0000-666666777777-|
e-------------------------------------------------------------------------|
  .   .     ............ . . . . . . . .

e---------------------------------------------------------------------------|
b---------------------------------------------------------------------------|
g---------------------------------------------------------------------------|
d------------------------------------2-2-2-2-2-2-2-2------------------------|
a-0000-666666-0000-3333-111111111111-0-0-0-0-0-0-0-0-1111111100001111444444-|
e---------------------------------------------------------------------------|
                                     . . . . . . . .
e-------------------------------------------------------------------------|
b-------------------------------------------------------------------------|
g-------------------------------------------------------------------------|
d-------------------------------------------------------------------------|
a-333333-0000-5-0-5-0-4-0-5-0-8-0-7-0-7-0-5-00-666666-00-1111-0000-666666-|
e-------------------------------------------------------------------------|

e-----------------------------------------------------------------------|
b-----------------------------------------------------------------------|
g-----------------------------------------------------------------------|
d-----------------------------------------2--------------2--------------|
a-777777-0000-666666-000-3333111111111111-0-000000000000-0-000000000000-|
e-----------------------------------------------------------------------|
                                          . ............ . ............

e---------------------------------------------------------------------------|
b---------------------------------------------------------------------------|
g---------------------------------------------------------------------------|
d-2-2-2-2-2-2-2-2--------------------------------------------------44-------|
a-0-0-0-0-0-0-0-0---------000000222333666555----------000000222333----33-11-|
e-----------------33-66-33-------------------33-66-33-----------------------|
  . . . . . . . .

e--------------------------------------------------------------------------|
b--------------------------------------------------------------------------|
g--------------------------------------------------------------------------|
d----------2----2--------------2----2----2-2-2-----------------------------|
a----------0-00-0-00-----------0-00-0-00-0-0-0----------000000222333666555-|
e-33-66-33------------33-66-33-----------------33-66-33--------------------|
           . .. . ..           . .. . .. . . .

e------------------------------------------------------------------------|
b------------------------------------------------------------------------|
g------------------------------------------------------------------------|
d-----------------------44----------------2----2-------------2----2----2-|
a----------000000222333----33-11----------0-00-0-00----------0-00-0-00-0-|
e-33-66-33-----------------------33-66-33-----------33-66-33-------------|
                                          . .. . ..          . .. . .. .
e-------------------------------------------|
b-------------------------------------------|
g-------------------------------------------|
d-2-2-2-------------------------------------|
a-0-0-0-111111-0000-1111-444444-333333-0000-|
e-------------------------------------------|
  . . .

ⓘ Guitar tab for 'Evidence In The Furnace' by Cannibal Corpse, a death metal band formed in 1988 from Buffalo, New York

Almost there ...

Sign in to get your own page with links to favourite songs and more. You are just one click away...

Login with Facebook Login with Google