Log in

One click and you are in

Login with Facebook Login with Google

Why sign up and log in

Guitar Tabs Explorer
Cannibal Corpse tabs for Carnivorous swarm

Guitar tabs with lyrics

yes the one you all have been waiting for
cannibal corpse
carnivorous swarm
album evisceration plague
tabber;ben chaffins

tuning is a# or half a step down from b
again putting in standard so its easier to read
this is pat o brien at his best this guy is a god
remember this is death metal so this is played very fucking fast

e--------------------------------------------------------------------|
b---------------------7----------------------------------------------|
g-7------8------7-----5------7------8-----10-------9-----------------|
d-5-4444-6-4444-5-4-4---4444-5-4444-6-4-4--8--4444-7-4-4-6p4-4-4-7p4-|
a--------------------------------------------------------------------|
e--------------------------------------------------------------------|

e---------------------------------------------------------------------------|
b--------------------------------------------------------------7------------|
g---------------------7------8------7-----10------7------8-----5------8-----|
d-4-4-6p4-4-6p4-3-3-3-5-4444-6-4444-5-4-4-8--4444-5-4444-6-4-4---4444-6-4-4-|
a---------------------------------------------------------------------------|
e---------------------------------------------------------------------------|

e---------------------------------------------------------------------------|
b-7-------------------------------------------------------------------------|
g-5------8------9-----------------------------------------------------------|
d---4444-6-4444-7-4-4-7p4-4-4-6p3-3-3-7p4-4-4-6p3-3-3-3-4-4-7p4-4-4-6p3-3-3-|
a---------------------------------------------------------------------------|
e---------------------------------------------------------------------------|
                           this section spaced out here is played 4 times
e--------------------        -------------------------------------------|
b-------------------        --------------------------------------------|
g------------------       ---------------5-5-6-----------------7-7-6----|
d-7p4-4-4-6p3-3-3-       ----------------3-3-4-----------------5-5-4----|
a----------------       -1-1-0-0-2-2-0-0-------2-2-0-0-1-1-0-0----------|
e----------------         ----------------------------------------------|

 this here below is played 4 times
e--------------------------------------------------------------|
b--------------------------------------------------------------|
g--------------------------------------------------------------|
d-12-0-0-12-0-0-12-0-11-0-11-0-12-0-13-0-12-0-0-12-0-0-12-11-0-|
a--------------------------------------------------------------|
e--------------------------------------------------------------|

 the section that was spaced out above again times 2
e---------------------------------------------|
b---------------------------------------------|
g-----------------5-5-6-----------------7-7-6-|
d-----------------3-3-4-----------------5-5-4-|
a-1-1-0-0-2-2-0-0-------2-2-0-0-1-1-0-0-------|
e---------------------------------------------|

then this again times 4
e--------------------------------------------------------------|
b--------------------------------------------------------------|
g--------------------------------------------------------------|
d-12-0-0-12-0-0-12-0-11-0-11-0-12-0-13-0-12-0-0-12-0-0-12-11-0-|
a--------------------------------------------------------------|
e--------------------------------------------------------------|

play this with whats under it together 2 times
e----------------------------------------------------------|
b---------------------8------------------------------------|
g-7------8------7-----6------7------8----10-------8------9-|
d-5-4444-6-4444-5-4-4---4444-5-4444-6-4-4-8--4444-6-4444-7-|
a----------------------------------------------------------|
e----------------------------------------------------------|

e------------------------------------------------|
b------------------------------------------------|
g------------------------------------------------|    these chords are not played
d-4-4-6p4-4-4-7p4-4-4-6p4-4-6p4-3-3-3-    8---5--|    with the other stuff
a-------------------------------------    8---5--|
e-------------------------------------    6---3--|

e---------------------------------------------------------------------------|
b---------------------------------------------------------------------------|
g-----------------------6---------------------------------------------------|
d-----------------------------8---------------------------------------------|
a-4/3/4-------------4-7-------------4/3/4-------------4/3/4-----------------|
e-2/1/2-0-0-0-0-0-0-------6-3---3-0-2/1/2-0-0-0-0-0-0-2/1/2-0-0-5-5-0-0-6-6-|
        . . . . . .                       . . . . . .
e---------|
b---------|
g---------|
d-----8-5-|
a-----8-5-|
e-0-0-6-3-| this here is what is continued above play together 3 times

 this riff here below is also played 3 times
e----------------------------------------------------------------------------|
b----------------------------------------------------------------------------|
g------------------------9-----6---------------------------------------------|
d----------------------------------------------------------------------------|
a-4/3/4-------------7-10-------------4/3/4-------------4/3/4-----------------|
e-2/1/2-0-0-0-0-0-0--------9-6---6-3-2/1/2-0-0-0-0-0-0-2/1/2-0-0-5-5-0-0-6-6-|
        . . . . . .                        . . . . . .

then we go on to this here below
e------------------------------------------------------|
b------------------------------------------------------|
g------------------------------------------------------|
d------------------------------------------------------|
a-8-----------------------5----------------------4/3/4-|
e-6-666666666666666666666-3-33333333333333333333-2/1/2-|

then this fun part again
e--------------------------------------------------------------------------|
b--------------------------------------------------------------------------|
g--------------------------------------------------------------------------|
d-12-0-0 12-0-0-12-0-11-0-11-0-12-0-13-0-12-0-0-12-0-0-12-0-13-0-13-0-12-0-|
a--------------------------------------------------------------------------|
e--------------------------------------------------------------------------|


solo begins here i couldnt figure it out but this is what i think rob is
playing

e----------------------------------------------------------------------------|
b----------------------------------------------------------------------------|
g----------------------------------------------------------------------------|
d--------------------7777------8888-------8888-------------------------------|
a----------7777-------------------------------------7777------9999------8888-|
e-55556666------5555------5555------55555------6666------6666------6666------|

then you play the intro again
this here below ends the song
e---------|
b---------|
g---------|
d-8--5--2-|
a-8--5--2-|
e-6--3--0-|

Almost there ...

Sign in to get your own page with links to favourite songs and more. You are just one click away...

Login with Facebook Login with Google