Guitar Tabs Explorer
Canned Heat bass tabs for Going up the country

Going Up The Country bass tab


5 / 5 [2 votes]


Ayreon77Author: Ayreon77

Going Up The Country bass tab by Canned Heat

The rural hippie anthem "Going up the country" is American blues-rockers Canned Heat´s most famous song. Canned Heat released "Going up the country" as a single in 1968 and also included it on their "Living the blues" album from the same year.

Bass tabs

Print
  • Tuning: Standard tuning
  • Difficulty: Novice
-------------------------------------------------------------------
                     Artist - Canned Heat
                    **********************
                 Song - Going Up The Country
                *****************************
                    Tabbed By - Ayreon77
                   **********************
-------------------------------------------------------------------
Tuning = Standard


FLUTE - No Bass
******

--------------------------
00:21
VERSE 1
********
G|----------|----------|----------|----------|----------|----------|----------|----------|
D|-8-8------|-8-8------|-8-8------|-8-8------|-8-8------|-8-8------|-8-8------|-8-8------|
A|-----10-8-|-----10-8-|-----10-8-|-----10-8-|-----10-8-|-----10-8-|-----10-8-|-----10-8-|
E|----------|----------|----------|----------|----------|----------|----------|----------|


G|----------------------------|----------|----------|-----------|
D|----------------------------|-8-8------|-8-8------|-8---------|
A|-6-6-6--6-6-6--6-6-6--6-6-6-|-----10-8-|-----10-8-|---5-6-7-8-|
E|----------------------------|----------|----------|-----------|


G|----------|----------|----------|----------|----------|----------|-----------|
D|----------|----------|----------|----------|-8-8------|-8-8------|-8---------|
A|-8-8------|-8-8------|-8-8------|-8-8------|-----10-8-|-----10-8-|---5-6-7-8-|
E|-----10-8-|-----10-8-|-----10-8-|-----10-8-|----------|----------|-----------|


--------------------------
00:38
VERSE 2
********
G|----------|----------|----------|----------|----------|----------|----------|----------|
D|-8-8------|-8-8------|-8-8------|-8-8------|-8-8------|-8-8------|-8-8------|-8-8------|
A|-----10-8-|-----10-8-|-----10-8-|-----10-8-|-----10-8-|-----10-8-|-----10-8-|-----10-8-|
E|----------|----------|----------|----------|----------|----------|----------|----------|


G|----------------------------|----------|----------|-----------|
D|----------------------------|-8-8------|-8-8------|-8---------|
A|-6-6-6--6-6-6--6-6-6--6-6-6-|-----10-8-|-----10-8-|---5-6-7-8-|
E|----------------------------|----------|----------|-----------|


G|----------|----------|----------|----------|----------|----------|----------|----------|
D|----------|----------|----------|----------|-8-8------|-8-8------|-8-8------|-8-8------|
A|-8-8------|-8-8------|-8-8------|-8-8------|-----10-8-|-----10-8-|-----10-8-|-----10-8-|
E|-----10-8-|-----10-8-|-----10-8-|-----10-8-|----------|----------|----------|----------|


--------------------------
00:56
FLUTE
******
G|----------|----------|----------|----------|----------|----------|----------|----------|
D|-8-8------|-8-8------|-8-8------|-8-8------|-8-8------|-8-8------|-8-8------|-8-8------|
A|-----10-8-|-----10-8-|-----10-8-|-----10-8-|-----10-8-|-----10-8-|-----10-8-|-----10-8-|
E|----------|----------|----------|----------|----------|----------|----------|----------|


G|----------------------------|----------|----------|-----------|
D|----------------------------|-8-8------|-8-8------|-8---------|
A|-6-6-6--6-6-6--6-6-6--6-6-6-|-----10-8-|-----10-8-|---5-6-7-8-|
E|----------------------------|----------|----------|-----------|


G|----------|----------|----------|----------|----------|----------|---------|---------|
D|----------|----------|----------|----------|-8-8------|-8-8------|-8-8-8-8-|-8-8-8-8-|
A|-8-8------|-8-8------|-8-8------|-8-8------|-----10-8-|-----10-8-|---------|---------|
E|-----10-8-|-----10-8-|-----10-8-|-----10-8-|----------|----------|---------|---------|


--------------------------
01:14
VERSE 3
********
G|----------|----------|----------|----------|----------|----------|----------|----------|
D|-8-8------|-8-8------|-8-8------|-8-8------|-8-8------|-8-8------|-8-8------|-8-8------|
A|-----10-8-|-----10-8-|-----10-8-|-----10-8-|-----10-8-|-----10-8-|-----10-8-|-----10-8-|
E|----------|----------|----------|----------|----------|----------|----------|----------|


G|----------------------------|----------|----------|-----------|
D|----------------------------|-8-8------|-8-8------|-8---------|
A|-6-6-6--6-6-6--6-6-6--6-6-6-|-----10-8-|-----10-8-|---5-6-7-8-|
E|----------------------------|----------|----------|-----------|


G|----------|----------|----------|----------|----------|----------|----------|----------|
D|----------|----------|----------|----------|-8-8------|-8-8------|-8-8------|-8-8------|
A|-8-8------|-8-8------|-8-8------|-8-8------|-----10-8-|-----10-8-|-----10-8-|-----10-8-|
E|-----10-8-|-----10-8-|-----10-8-|-----10-8-|----------|----------|----------|----------|


--------------------------
01:32
BRIDGE 1
********
G|---------|---------|---------|---------|---------|---------|---------|---------|
D|-8-8-8-8-|-8-8-8-8-|-8-8-8-8-|-8-8-8-8-|-8-8-8-8-|-8-8-8-8-|-8-8-8-8-|-8-8-8-8-|
A|---------|---------|---------|---------|---------|---------|---------|---------|
E|---------|---------|---------|---------|---------|---------|---------|---------|


G|---------|---------|---------|---------|---------|---------|---------|---------|
D|---------|---------|---------|---------|-8-8-8-8-|-8-8-8-8-|-8-8-8-8-|-8-8-8-8-|
A|-6-6-6-6-|-6-6-6-6-|-6-6-6-6-|-6-6-6-6-|---------|---------|---------|---------|
E|---------|---------|---------|---------|---------|---------|---------|---------|


G|---------|---------|---------|---------|---------|---------|---------|---------|
D|---------|---------|---------|---------|-8-8-8-8-|-8-8-8-8-|-8-8-8-8-|-8-8-8-8-|
A|-8-8-8-8-|-8-8-8-8-|-8-8-8-8-|-8-8-8-8-|---------|---------|---------|---------|
E|---------|---------|---------|---------|---------|---------|---------|---------|


--------------------------
01:50
FLUTE
******
G|----------|----------|----------|----------|----------|----------|----------|----------|
D|-8-8------|-8-8------|-8-8------|-8-8------|-8-8------|-8-8------|-8-8------|-8-8------|
A|-----10-8-|-----10-8-|-----10-8-|-----10-8-|-----10-8-|-----10-8-|-----10-8-|-----10-8-|
E|----------|----------|----------|----------|----------|----------|----------|----------|


G|----------------------------|----------|----------|-----------|
D|----------------------------|-8-8------|-8-8------|-8---------|
A|-6-6-6--6-6-6--6-6-6--6-6-6-|-----10-8-|-----10-8-|---5-6-7-8-|
E|----------------------------|----------|----------|-----------|


G|----------|----------|----------|----------|----------|----------|----------|----------|
D|----------|----------|----------|----------|-8-8------|-8-8------|-8-8------|-8-8------|
A|-8-8------|-8-8------|-8-8------|-8-8------|-----10-8-|-----10-8-|-----10-8-|-----10-8-|
E|-----10-8-|-----10-8-|-----10-8-|-----10-8-|----------|----------|----------|----------|


--------------------------
02:08
BRIDGE 2
*********
G|----------------------------|----------|----------|----------|--------|
D|----------------------------|-8-8------|-8-8------|-8-8------|-8-8----|
A|-6-6-6--6-6-6--6-6-6--6-6-6-|-----10-8-|-----10-8-|-----10-8-|-----10-|
E|----------------------------|----------|----------|----------|--------|



G|-------|-------|-------|-------|----------|----------|----------|----------|
D|-------|-------|-------|-------|-8-8------|-8-8------|-8-8------|-8-8------|
A|-8-8-8-|-8-8-8-|-8-8-8-|-8-8-8-|-----10-8-|-----10-8-|-----10-8-|-----10-8-|
E|-------|-------|-------|-------|----------|----------|----------|----------|


--------------------------
02:20
FLUTE
******
G|----------------------------|----------|----------|----------|----------|
D|----------------------------|-8-8------|-8-8------|-8-8------|-8-8------|
A|-6-6-6--6-6-6--6-6-6--6-6-6-|-----10-8-|-----10-8-|-----10-8-|-----10-8-|
E|----------------------------|----------|----------|----------|----------|


G|----------|----------|----------|----------|----------------|
D|----------|----------|----------|----------|-8---------8~~~-|
A|-8-8------|-8-8------|-8-8------|-8-8------|---5-6-7-8------|
E|-----10-8-|-----10-8-|-----10-8-|-----10-8-|----------------|


--------------------------
03:32
OUTRO FLUTE - No Bass
************


ENJOY.............

Comment this song and these bass tabs

Do you have corrections, comments on the bass tabs, thoughts about the song or a message to the author? Write them below.