Log in

One click and you are in

Login with Facebook Login with Google

Why sign up and log in

Guitar Tabs Explorer
Can bass tabs for Sunday jam

Bass tabs

------------------------------------------------------------------------------
                  Can - SUNDAY JAM
------------------------------------------------------------------------------

Main bassline

G------7-7---5------5-7---|
D----------7----7-7-------|
A---5---------------------|
E-------------------------|

Play fingerstyle close to the bridge. Here's a variation Gee
plays like four times in the song.

G----------5-5------5-7---|
D---5--7-7------7-7-------|
A-------------------------|

Almost there ...

Sign in to get your own page with links to favourite songs and more. You are just one click away...

Login with Facebook Login with Google