Search tabs and chords

Search for song, artist or band

Log in

One click and you are in

Login with Facebook Login with Google

Why sign up and log in

Guitar Tabs Explorer
Dove Cameron guitar tabs for If only acoustic

Intro

Tuning: Standard (E chord diagramEE A chord diagramAA D chord diagramDD G chord diagramGG B chord diagramBB E chord diagramEE)

Difficulty: Novice

Intro:

e|--3--2-------3--2-------3--2--------3--2-----------------------------------|
B|--------0----------0----------3-----------3--------------------------------|
G|---------------------------------------------------------------------------|
D|---------------------------------------------------------------------------|
A|---------------------------------------------------------------------------|
E|---------------------------------------------------------------------------|

e|--2--0-------2--0----------------------------------------------------------|
B|--------3----------3----3--1-------3--1------------------------------------|
G|------------------------------0----------0---------------------------------|
D|---------------------------------------------------------------------------|
A|---------------------------------------------------------------------------|
E|---------------------------------------------------------------------------|

Other versions of If Only Acoustic

If onlyChords
If onlyTabs

Almost there ...

Sign in to get your own page with links to favourite songs and more. You are just one click away...

Login with Facebook Login with Google