Search tabs and chords

Browse bands and artists

A B C D E F G H I J K L M N O P Q R S T U V W X Y Z #

Log in

[ Register here | Forgot password ]

Guitar Tabs Explorer
Print

Bass tabs :

Feels bass tab by Calvin Harris Pharrell Williams Katy Perry Big Sean

G|---------------------------------------------------------------------------|
D|---------------------------------------------------------------------------|
A|------7---------------------7----------------------------------------------|
E|-----------------0---------------------------------------------------------|


G|---------------------------------------------------------------------------|
D|---------------------------------------------------------------------------|
A|--7----7----------------------------------------2------------2-------------|
E|------------3----4----5----3----2----2-------------------------------------|

G|---------------------------------------------------------------------------|
D|---------------------------------------------------------------------------|
A|----7----7-----------------7-------5----------------------2------2---------|
E|--------------3----4----5-------3-----------2------2-----------------------|


G|---------------------------------------------------------------------------|
D|---------------------------------------------------------------------------|
A|--7----7----------------------------------------2------------2-------------|
E|------------3----4----5----3----2----2-------------------------------------|


G|---------------------------------------------------------------------------|
D|---------------------------------------------------------------------------|
A|----7----7-----------------7-------5----------------------2------2---------|
E|--------------3----4----5-------3-----------2------2-----------------------|


G|---------------------------------------------------------------------------|
D|---------------------------------------------------------------------------|
A|--7----7----------------------------------------2------------2-------------|
E|------------3----4----5----3----2----2-------------------------------------|


G|---------------------------------------------------------------------------|
D|---------------------------------------------------------------------------|
A|----7----7-----------------7-------5----------------------2------2---------|
E|--------------3----4----5-------3-----------2------2-----------------------|

G|---------------------------------------------------------------------------|
D|---------------------------------------------------------------------------|
A|--7----7----------------------------------------2------------2-------------|
E|------------3----4----5----3----2----2-------------------------------------|


G|---------------------------------------------------------------------------|
D|---------------------------------------------------------------------------|
A|----7----7-----------------7-------5----------------------2------2---------|
E|--------------3----4----5-------3-----------2------2-----------------------|


G|---------------------------------------------------------------------------|
D|---------------------------------------------------------------------------|
A|--7----7----------------------------------------2------------2-------------|
E|------------3----4----5----3----2----2-------------------------------------|


G|---------------------------------------------------------------------------|
D|---------------------------------------------------------------------------|
A|----7----7-----------------7-------5----------------------2------2---------|
E|--------------3----4----5-------3-----------2------2-----------------------|


G|---------------------------------------------------------------------------|
D|---------------------------------------------------------------------------|
A|--7----7----------------------------------------2------------2-------------|
E|------------3----4----5----3----2----2-------------------------------------|


G|---------------------------------------------------------------------------|
D|---------------------------------------------------------------------------|
A|----7----7-----------------7-------5----------------------2------2---------|
E|--------------3----4----5-------3-----------2------2-----------------------|


G|---------------------------------------------------------------------------|
D|---------------------------------------------------------------------------|
A|--7----7----------------------------------------2------------2-------------|
E|------------3----4----5----3----2----2-------------------------------------|


G|---------------------------------------------------------------------------|
D|---------------------------------------------------------------------------|
A|----7----7-----------------7-------5----------------------2------2---------|
E|--------------3----4----5-------3-----------2------2-----------------------|

G|---------------------------------------------------------------------------|
D|---------------------------------------------------------------------------|
A|--7----7----------------------------------------2------------2-------------|
E|------------3----4----5----3----2----2-------------------------------------|


G|---------------------------------------------------------------------------|
D|---------------------------------------------------------------------------|
A|----7----7-----------------7-------5----------------------2------2---------|
E|--------------3----4----5-------3-----------2------2-----------------------|


G|---------------------------------------------------------------------------|
D|---------------------------------------------------------------------------|
A|--7----7----------------------------------------2------------2-------------|
E|------------3----4----5----3----2----2-------------------------------------|


G|---------------------------------------------------------------------------|
D|---------------------------------------------------------------------------|
A|----7----7-----------------7-------5----------------------2------2---------|
E|--------------3----4----5-------3-----------2------2-----------------------|


G|---------------------------------------------------------------------------|
D|---------------------------------------------------------------------------|
A|--7----7----------------------------------------2------------2-------------|
E|------------3----4----5----3----2----2-------------------------------------|


G|---------------------------------------------------------------------------|
D|---------------------------------------------------------------------------|
A|----7----7-----------------7-------5----------------------2------2---------|
E|--------------3----4----5-------3-----------2------2-----------------------|


G|---------------------------------------------------------------------------|
D|---------------------------------------------------------------------------|
A|--7----7----------------------------------------2------------2-------------|
E|------------3----4----5----3----2----2-------------------------------------|


G|---------------------------------------------------------------------------|
D|---------------------------------------------------------------------------|
A|----7----7-----------------7-------5----------------------2------2---------|
E|--------------3----4----5-------3-----------2------2-----------------------|


G|---------------------------------------------------------------------------|
D|---------------------------------------------------------------------------|
A|--7----7----------------------------------------2------------2-------------|
E|------------3----4----5----3----2----2-------------------------------------|


G|---------------------------------------------------------------------------|
D|---------------------------------------------------------------------------|
A|----7----7-----------------7-------5----------------------2------2---------|
E|--------------3----4----5-------3-----------2------2-----------------------|


G|---------------------------------------------------------------------------|
D|---------------------------------------------------------------------------|
A|--7----7----------------------------------------2------------2-------------|
E|------------3----4----5----3----2----2-------------------------------------|


G|---------------------------------------------------------------------------|
D|---------------------------------------------------------------------------|
A|----7----7-----------------7-------5----------------------2------2---------|
E|--------------3----4----5-------3-----------2------2-----------------------|


G|---------------------------------------------------------------------------|
D|---------------------------------------------------------------------------|
A|--7----7----------------------------------------2------------2-------------|
E|------------3----4----5----3----2----2-------------------------------------|


G|---------------------------------------------------------------------------|
D|---------------------------------------------------------------------------|
A|----7----7-----------------7-------5----------------------2------2---------|
E|--------------3----4----5-------3-----------2------2-----------------------|


G|---------------------------------------------------------------------------|
D|----2----2-----------------------------------------------------------------|
A|---------------------------------------------------------------------------|
E|--------------0----0----3------------0----0------0----0----3---------------|


G|---------------------------------------------------------------------------|
D|----2----2-----------------------------------------------------------------|
A|---------------------------------------------------------------------------|
E|--------------0----0----3------------0----0------0----0----3---------------|


G|---------------------------------------------------------------------------|
D|----2----2-----------------------------------------------------------------|
A|---------------------------------------------------------------------------|
E|--------------0----0----3------------0----0------0----0----3---------------|


G|---------------------------------------------------------------------------|
D|---------------------------------------------------------0-----------------|
A|----0---------0----2----0----2------------3----2----3----------------------|
E|---------3-----------------------------------------------------------------|


G|---------------------------------------------------------------------------|
D|----2----2-----------------------------------------------------------------|
A|---------------------------------------------------------------------------|
E|--------------0----0----3------------0----0------0----0----3---------------|


G|---------------------------------------------------------------------------|
D|----2----2-----------------------------------------------------------------|
A|---------------------------------------------------------------------------|
E|--------------0----0----3------------0----0------0----0----3---------------|


G|---------------------------------------------------------------------------|
D|----2----2-----------------------------------------------------------------|
A|---------------------------------------------------------------------------|
E|--------------0----0----3------------0----0------0----0----3---------------|


G|---------------------------------------------------------------------------|
D|---------------------------------------------------------0-----------------|
A|----0---------0----2----0----2------------3----2----3----------------------|
E|---------3-----------------------------------------------------------------|


G|---------------------------------------------------------------------------|
D|---------------------------------------------------------------------------|
A|--7----7----------------------------------------2------------2-------------|
E|------------3----4----5----3----2----2-------------------------------------|


G|---------------------------------------------------------------------------|
D|---------------------------------------------------------------------------|
A|----7----7-----------------7-------5----------------------2------2---------|
E|--------------3----4----5-------3-----------2------2-----------------------|


G|---------------------------------------------------------------------------|
D|---------------------------------------------------------------------------|
A|--7----7----------------------------------------2------------2-------------|
E|------------3----4----5----3----2----2-------------------------------------|


G|---------------------------------------------------------------------------|
D|---------------------------------------------------------------------------|
A|----7----7-----------------7-------5----------------------2------2---------|
E|--------------3----4----5-------3-----------2------2-----------------------|


G|---------------------------------------------------------------------------|
D|---------------------------------------------------------------------------|
A|--7----7----------------------------------------2------------2-------------|
E|------------3----4----5----3----2----2-------------------------------------|


G|---------------------------------------------------------------------------|
D|---------------------------------------------------------------------------|
A|----7----7-----------------7-------5----------------------2------2---------|
E|--------------3----4----5-------3-----------2------2-----------------------|


G|---------------------------------------------------------------------------|
D|---------------------------------------------------------------------------|
A|--7----7----------------------------------------2------------2-------------|
E|------------3----4----5----3----2----2-------------------------------------|


G|---------------------------------------------------------------------------|
D|---------------------------------------------------------------------------|
A|----7----7-----------------7-------5----------------------2------2---------|
E|--------------3----4----5-------3-----------2------2-----------------------|

Wrriten up by: AxiomaticLegacy
Thank you for looking!

Credits: \/ \/ \/

Original creator: zab.dom (https://www.youtube.com/watch?v=SQ3rhmKJ_eE)
Original song: (https://www.youtube.com/watch?v=ozv4q2ov3Mk)

Funky but repetative bass tabs for Feels by Calvin Harris.

Comments

Calvin Harris Pharrell Williams Katy Perry Big Sean bass tabs for Feels