Log in

One click and you are in

Login with Facebook Login with Google

Why sign up and log in

Guitar Tabs Explorer
Calva Louise guitar tabs for I heard a cry

Guitar tabs with lyrics

Tuning: Standard (E A D G B E)

Difficulty: Novice


Intro:
e|---------3-------------3---------1-------3-|
B|--------4-------------4---------3-------3--|
G|-------5-------------5---------3-------0---|
D|---5-------------5----------3---------0----|
A|-3---------3-2-0----------1----------2-----|
E|------------------------------------3------|
Solo:
e|-------------------------------------|
B|-10--10-8-10--10-8-10--10-8-10-11-11-|
G|-------------------------------------|
D|-------------------------------------|
A|-------------------------------------|
E|-------------------------------------|

e|----------------------------------------------|
B|-10-10-10-8-10-10-10-8-10-10-10-8-10-10-11-11-|
G|----------------------------------------------|
D|----------------------------------------------|
A|----------------------------------------------|
E|----------------------------------------------|

e|-------------------------------------|
B|-10--10-8-10--10-8-10--10-8-10-11-11-|
G|-------------------------------------|
D|-------------------------------------|
A|-------------------------------------|
E|-------------------------------------|

e|----------------------------------------------|
B|-10-10-10-8-10-10-10-8-10-11-10-8-10-10-10-10-|
G|----------------------------------------------|
D|----------------------------------------------|
A|----------------------------------------------|
E|----------------------------------------------|

e|-------------------------------------|
B|-10-10-10-8-10-10-10-8--10--8--------|
G|-------------------------------9--10-|
D|-------------------------------------|
A|-------------------------------------|
E|-------------------------------------|

e|------------------------------------------------------------------------|
B|------------------------------------10-10-10-8-10-10-10-8-10-11-10-8-10-|
G|-7-7-7----7-7-7----7-7-7----7-9-10--------------------------------------|
D|-------10-------10-------10---------------------------------------------|
A|------------------------------------------------------------------------|
E|------------------------------------------------------------------------|

Solo Base:
e|-----------------------------------------------|
B|-----------------------------------------------|
G|-----------------------------------------------|
D|--------------10-9-7-6-7-7-7-7-7-7-------------|
A|-3-3-3-3-3-3--8--7-5-4-5-5-5-5-5-5--3-3-3-3-3-3|
E|-1-1-1-1-1-1------------------------1-1-1-1-1-1|


Verse 1:
e|--------------------------------------|
B|--------------------------------------|
G|--------------------------------------|
D|--------------7-7-7-7-7-7-------------|
A|-3-3-3-3-3-3--5-5-5-5-5-5--3-3-3-3-3-3|
E|-1-1-1-1-1-1---------------1-1-1-1-1-1|

I heard a cry far away
Lingering, echoing its way
A chord diagramA majorA wave piercing my brain
Somebody calling its name

e|-----------------------------------------------|
B|-----------------------------------------------|
G|-----------------------------------------------|
D|--------------10-9-7-6-7-7-7-7-7-7-------------|
A|-3-3-3-3-3-3--8--7-5-4-5-5-5-5-5-5--3-3-3-3-3-3|
E|-1-1-1-1-1-1------------------------1-1-1-1-1-1|

I heard a cry far away
Lingering, echoing its way
A chord diagramA majorA wave piercing my brain
Somebody calling your name


Verse 2:
e|--------------------------------------|
B|--------------------------------------|
G|--------------------------------------|
D|--------------7-7-7-7-7-7-------------|
A|-3-3-3-3-3-3--5-5-5-5-5-5--3-3-3-3-3-3|
E|-1-1-1-1-1-1---------------1-1-1-1-1-1|

For what it was
In the victim's eye
Hey! Just a dead end!
Became a fatal cry


Verse 3:
e|-------------------------------------------------------------|
B|-------------------------------------------------------------|
G|-------------------------------------------------------------|
D|--------------2-2-2-2-2-2--10-9-7-6-7-7-7-7-7-7--------------|
A|-3-3-3-3-3-3--0-0-0-0-0-0--8--7-5-4-5-5-5-5-5-5--3-3-3-3-3-3-|
E|-1-1-1-1-1-1-------------------------------------1-1-1-1-1-1-|

Accusers accused of
Redeeming, repeating
The old sins, pointing
Fingers covered in
Young blood!


Verse 4:
It wasn't your intention
You just sold the land
You called your own
And yet you said:
"Let's keep pretending"
Oh! Can't you see?
The damage is done


Bridge:
But I heard a cry far away
We all heard a cry far away


Verse 5:
e|---------------------------------------------------------------------------------------|
B|---------------------------------------------------------------------------------------|
G|---------------------------------------------------------------------------------------|
D|--------------6-6-6-6-6-6--7-7-7-7-7-7--9-9-9-9-9-9--10-10-10-10-10-10--14-14-14-14-14-|
A|-3-3-3-3-3-3--4-4-4-4-4-4--5-5-5-5-5-5--7-7-7-7-7-7--8--8--8--8--8--8---12-12-12-12-12-|
E|-1-1-1-1-1-1---------------------------------------------------------------------------|

I heard a cry far away
Lingering, echoing its way
Hey! It's not a dead end!
We won't break the chain!

I heard a cry far away
Lingering, echoing its way
Hey! It's not a dead end!
Louder will spread!

Final:
e|-----------------------------------------------|
B|-----------------------------------------------|
G|-----------------------------------------------|
D|--------------10-9-7-6-7-7-7-7-7-7-------------|
A|-3-3-3-3-3-3--8--7-5-4-5-5-5-5-5-5--3-3-3-3-3-3|
E|-1-1-1-1-1-1------------------------1-1-1-1-1-1|

I heard a cry far away
Lingering, echoing its way
Hey! It's not a dead end!
We won't break the chain!

I heard a cry far away
Lingering, echoing its way
Hey! It's not a dead end!
We won't break the chain!

↓ Add and view comments below ↓

What do you think about this song and these tabs?

Add your comments, questions, rant or a thumbs up below.

Almost there ...

Sign in to get your own page with links to favourite songs and more. You are just one click away...

Login with Facebook Login with Google