Log in

One click and you are in

Login with Facebook Login with Google

Why sign up and log in

Guitar Tabs Explorer
Calexico tabs for Stray

Guitar tabs

#################################


Tabbed by gueguet33
any comments gueguet2@hotmail.fr
Intro (harmonics)

|----------------------------------|
|----------------------------------|
|-12---12-12-----12-12---12-12-----|
|-------------12----------------12-|
|----------------------------------|
|----------------------------------|

Then comes guitar :

|---------------------------|-----------------------------|
|---------------------------|-----------------------------|
|---------------------------|-----------------------------|
|-----0-------------------0-|-1-1-1-3-1-0-0---------------|
|---1-----1---1/3-1-0---1---|----------------3p1-0-0-1-0--|
|-3---------3---------3-----|-----------------------------|


|---------------------------|----------------------------|-----------------...
|---------------------------|----------------------------|-----------------...
|---------------------------|----------------------------|-----------------...
|-------0-------------------|-1-1-1-3-1-0-0--------------|---0-----0-----0-...
|-----1-----1---1/3-1-0-----|----------------3h4h5-3-1-0-|-----------------...
|-1h3---------3---------3---|----------------------------|-3---3-3---3-3---...
                                                        (bass coming)


Bass Tab

----0--------|-----0--------|
--0------0---|---0------0---|
-------------|--------------|
-3---------1-|-3----------1-|

Then come vocals with guitar :

|-10-10-10--8--8--8---6-6-6--5-5--6-6/8--6-|
|-11-11-11--10-10-10--8-8-8--7-7--8-8/10-8-|
|------------------------------------------|  x2
|------------------------------------------|
|------------------------------------------|
|------------------------------------------|

|-11-11-11--10-10-10--10-10-10--10--9---9----9/10-10-|
|-10-10-10--11-11-11--11-11-11--11--10--10--10/11-11-|
|----------------------------------------------------|  x2
|----------------------------------------------------|
|----------------------------------------------------|
|----------------------------------------------------|


Break :

  A chord diagramG minorGm
|-3---3-3-------------|
|-3---3-3-------------|
|-3---3-3-------------|
|-5---5-5-----5-4-3-2-|
|-5---5-5---5---------|

Almost there ...

Sign in to get your own page with links to favourite songs and more. You are just one click away...

Login with Facebook Login with Google