Log in

One click and you are in

Login with Facebook Login with Google

Why sign up and log in

Guitar Tabs Explorer
Colbie Caillat tabs for Bubbly

Guitar tabs with lyrics

Intro and Verses

you can play it straight like this, or give a quick glissandro
playing the A chord diagramA augmentedA string first.
E-(5)--------(5)-------|-(5)--------(5)-------|The brackets R
B--5---5------5---5----|--5---5------5---5----|for the chorus.
G.-6---6------6---6----|--7---7------6---6---.|
D.-7----------6--------|--7----------7-------.|
A----------------------|----------------------|
E----------------------|----------------------|


Verse 1:

I've been awake for a while now
you've got me feelin like a child now
cause every time i see your bubbly face
i get the tinglies in a silly place


Same chords in the chorus:
*She arpeggios the intro chords, (and also includes the 5th fret
on the High A chord diagramE MajorE with all chords. This is the bracket in the intro)
*or lightly strum these chords


Chorus:
                A chord diagramA augmentedA
It starts in my toes
                   A chord diagramAmaj7Amaj7
and I crinkle my nose
               A chord diagramA augmentedA
where ever it goes i always know
                     A chord diagramA augmentedA
that you make me smile
                  A chord diagramAmaj7Amaj7
please stay for a while now
               A chord diagramD MajorD
just take your time
               A chord diagramA augmentedA
where ever you go

  Go back to the intro tab for this verse (but give it a bounce.)

Verse 2:

The rain is fallin on my window pane
but we are hidin in a safer place
under the covers stayin safe and warm
you give me feelings that i adore


Chorus:

They start in my toes
make me crinkle my nose
where ever it goes i always know
that you make me smile
please stay for a while now
just take your time
where ever you go


Bridge:
She plays this:

E-----------------|----------------|----------------|----------------|-----|
B--5---5---5---5--|--7---7---7---7-|--9---9---9---9-|--7--7---9--9---|--7--|
G.-6---6---6---6--|--7---7---7---7-|--9---9---9---9-|--7--7---9--9---|--7--|
D.-6---6---6---6--|--7---7---7---7-|--9---9---9---9-|--0--0---0--0---|--7--|
A-----------------|----------------|----------------|----------------|-----|
E-----------------|----------------|----------------|----------------|-----|


Alternativley you could lightly strum/palm mute this:
A chord diagramD MajorD
What am i gonna say
A chord diagramC# minorC#m
when you make me feel this way
A chord diagramE MajorE
I just.......mmmmmm


Chorus:

Scat: Intro/Verses tab for 4 bars with your own 'doo wops' singing. and
continue  playing
into the 3rd verse...


Verse 3: Intro/Verses tab

I’ve been asleep for a while now
You tucked me in just like a child now
Cause every time you hold me in your arms
I'm comfortable enough to feel your warmth


Chorus:

It starts in my soul
And I lose all control
When you kiss my nose
The feelin shows
Cause you make me smile
Baby just take your time now
Holdin me ti-i-ight

Tag:
She plays:
E------9---------5-------|-----7----------5------|
B-----5-5-------5--5-----|----5-5--------5--5----|
G.--6----6-----6----6----|---7---7------6----6--.|   x4
D.-7------7-0-6------6-0-|--7-----7--0-7------7-.|
A------------------------|-----------------------|
E------------------------|-----------------------|

Alternatively you could play this (OR intro/verse tabs, but arpeggio'd!)

 A chord diagramA augmentedA
Where ever, where ever, where ever you go
 A chord diagramA augmentedA
Where ever, where ever, where ever you go…
 A chord diagramA augmentedA
Ooh wherever you go, I always know
 A chord diagramA augmentedA
Cause you make me smile, baby, just for a while...

Bubbly tab

Colbie Caillat tabs for Bubbly Bubbly is from Colbie Caillat’s debut album “Coco” from 2007. Bubbly is written by Colbie herself along with Jason Reeves and was the album’s first single. Mikal Blue plays acoustic and bass guitar, electric guitar is handled by Jaco Caraco. Use these guitar tabs to get the right sound!

Bubbly has a gentle acoustic arrangement, use these guitar tabs to try to achieve that sound yourself. Bubbly was a worldwide hit and was well received among critics, too. Also be sure to check out the rest of our Colbie Caillat guitar tabs and chords arcive.

Other versions of Bubbly

BubblyChords
Bubbly (Ver. 2)Chords
Bubbly acousticChords
Bubbly liveChords
Bubbly ukuleleChords
Bubbly acousticTabs

Almost there ...

Sign in to get your own page with links to favourite songs and more. You are just one click away...

Login with Facebook Login with Google