Log in

One click and you are in

Login with Facebook Login with Google

Why sign up and log in

Guitar Tabs Explorer
Caifanes bass tabs for Nubes

Bass tabs with lyrics

Nubes

Album: El Silencio Fecha: 1992

Artista: Caifanes
Creada por: Jesus Prudenciano

Contacto o sugerencias: jesusprudenciano@hotmail.com
Intro:

Parecemos nubes
Que se las lleva el viento
Cuando hay huracanes
Cuando hay mal de amores
Parecemos presos
Y como presos pensamos
Escapar uno del otro
Y cometer la fuga
G|---------------------------------------------------------------------------|
D|-----------4----------------------------------------------------------------|
A|-----2--5------4-------------------------------------------------------------|
E|------------------5--2-----------------------------------------------------|


Chorus:

Vamos a dar una vuelta al cielo
Para ver lo que es eterno
Vamos a dar una vuelta al cielo
G|---------------------------------------------------------------------------|
D|---------------------------------------------------------------------------|
A|----------5-5-5-0---------------------7h9-8-7-6-5--------------------------|
E|------------------5-5-5-0-5-0-7-7-7-7--------------------------------------|

Para ver lo que es eterno
G|---------------------------------------------------------------------------|
D|---------------------------------------------------------------------------|
A|----------5-5-5-0---------------------7h9-8-7-6-5-4-3-2-2------------------|
E|------------------5-5-5-0-5-0-7-7-7-7--------------------------------------|


Verse 2:

G|---------------------------------------------------------------------------|
D|----------4----------------------------------------------------------------|
A|----2--5----5--4----------4--2---------------------------------------------| x4
E|------------------0--2--4--------------------------------------------------|

Pensaras que soy un perro
Que en el cerebro tengo moquillo
Que ladro y que no muerdo
Y que soy un mal agradecido
Tengo garras
Tengo dientes
Y defiendo lo que tengo
Ay amor ya no me entiendes
Porque muerdo y ya no suelto

G|---------------------------------------------------------------------------|
D|----------4----------------------------------------------------------------|
A|----2--5----5--4----------4--2---------------------------------------------|
E|------------------0--2--4--------------------------------------------------|


Chorus:

Vamos a dar una vuelta al cielo
Para ver lo que es eterno
Vamos a dar una vuelta al cielo
G|---------------------------------------------------------------------------|
D|---------------------------------------------------------------------------|
A|----------5-5-5-0---------------------7h9-8-7-6-5--------------------------|
E|------------------5-5-5-0-5-0-7-7-7-7--------------------------------------|

Para ver lo que es eterno
G|---------------------------------------------------------------------------|
D|---------------------------------------------------------------------------|
A|----------5-5-5-0---------------------7h9-8-7-6-5-4-3-2-2------------------|
E|------------------5-5-5-0-5-0-7-7-7-7--------------------------------------|

Bass solo:

G|---------------------------------------------------------------------------|
D|----------4----------------------------------------------------------------|
A|----2--5----5--4----------4--2---------------------------------------------| x5
E|------------------0--2--4--------------------------------------------------|

G|---------------------------------------------------------------------------|
D|------------7---4----------------------------------------------------------|
A|-------------------5----7---4------9------7----4---------------------------| x2
E|------------------------------5-------10----------5---2--------------------|

Se toca al ritmo de la voz

Vamos a dar una vuelta al cielo Para ver lo que es eterno Y luego vienes a buscarme.....
G|---------------------------------------------------------------------------|
D|--7---4--------------------------------------------------------------------|
A|--------5----7---4------9------7----4--------------2---5-5-5-5-5-5-5-5-----|
E|-------------------5-------10----------5---2----3--------------------------|


Chorus:

Vamos a dar una vuelta al cielo
Para ver lo que es eterno
Vamos a dar una vuelta al cielo
Para ver lo que es eterno
G|---------------------------------------------------------------------------|
D|---------------------------------------------------------------------------|
A|----------5-5-5-0---------------------7h9-8-7-6-5--------------------------|
E|------------------5-5-5-0-5-0-7-7-7-7--------------------------------------|

Guitar Solo:

G|---------------------------------------------------------------------------|
D|---------------------------------------------------------------------------|
A|----------5-5-5-0---------------------7h9-8-7-6-5--------------------------|
E|------------------5-5-5-0-5-0-7-7-7-7--------------------------------------|


Chorus 2:

Vamos a dar una vuelta al cielo
Para ver lo que es eterno
Vamos a dar una vuelta al cielo
Para ver lo que es eterno
G|---------------------------------------------------------------------------|
D|---------------------------------------------------------------------------|
A|----------5-5-5-0---------------------7h9-8-7-6-5--------------------------|
E|------------------5-5-5-0-5-0-7-7-7-7--------------------------------------|

 Ahhhhhhhhhh ahhhhhhhhhhhhhhhhhhhhhhhhhhhhhhh ahhhhhhhhhhhhhhh
G|---------------------------------------------------------------------------|
D|---------------------------------------------------------------------------|
A|----------5-5-5-0---------------------7h9-8-7-6-5--------------------------|
E|------------------5-5-5-0-5-0-7-7-7-7--------------------------------------|


Outro (Trompetas):

G|---------------------------------------------------------------------------|
D|---------------------------------------------------------------------------|
A|----------5-5-5-0---------------------7h9-8-7-6-5--------------------------|
E|------------------5-5-5-0-5-0-7-7-7-7--------------------------------------|

************************************

| x  Dead note
| g  Grace note
| (n) Ghost note
| h  Hammer-on
| p  Pull-off
| r  Release
| >  Accented note
| t  Tapping
| b  Bend
| br Bend release
| pb Pre-bend
| pbr Pre-bend release
| /  Slide up
| \  Slide down
| ~  Vibrato
| s  Slap
| P  Pop
| PM Palm mute
| TR Trill
| N  Tremolo
ⓘ Bass guitar tab for 'Nubes' by Caifanes, an alternative rock band formed in 1987 from Mexico City, Mexico

Almost there ...

Sign in to get your own page with links to favourite songs and more. You are just one click away...

Login with Facebook Login with Google