Log in

One click and you are in

Login with Facebook Login with Google

Why sign up and log in

Guitar Tabs Explorer
Caifanes bass tabs for No dejes que album

Bass tabs with lyrics

Intro:

G|---------------------------------------------------------------------------|
D|-----12------------12---------------------------4-2------------------------|
A|---------10--12--------10--12-12-12-12----0-2-0-----4----------------------|
E|---------------------------------------------------------------------------|
    D  G A   D  G    A       Arreglo de entrada

Verse:

Cuando veo atravez del vaso
veo a travez del tiempo
G|--------------------------------------------------------------------------|
D|--------------------------------------------------------------------------|
A|----5-5---------5---------------------------------------------------------|
E|--------5-5-3-3---3-5-5-0-0-5-0-0-5---------------------------------------|
    D    G     A

donde los sentidos se dislocan
donde los temores se evaporan
G|--------------------------------------------------------------------------|
D|-------4---------4--------------------------------------------------------|
A|-----4---4-----5---5------------------------------------------------------|
E|---2-------2-3-------3-5-5-0-0-5-0-0-5------------------------------------|
   F#    G      A

Y aprovecho para desdoblarme
para salir del vaso
G|--------------------------------------------------------------------------|
D|--------------------------------------------------------------------------|
A|----5-5---------5---------------------------------------------------------|
E|--------5-5-3-3---3-5-5-0-0-5-0-0-5---------------------------------------|
    D    G    A

con las paredes veo tu rostro
con la memoria busco tu rostro
G|--------------------------------------------------------------------------|
D|-------4---------4--------------------------------------------------------|
A|-----4---4-----5---5------------------------------------------------------|
E|---2-------2-3-------3-5-5-0-0-5-0-0-5------------------------------------|
   F#    G      A

Pre-Chorus:

Y no se por que
no me importa saber porque
G|---------------------------4-5-7-7-5-4------------------------------------|
D|-------3-3-3-2-1-----2-3-5------------3-----------------------------------|
A|----------------3-3-3-----------------------------------------------------|
E|--------------------------------------------------------------------------|
      F     C    G

No dejes que ....
G|--------------------------------------------------------------------------|
D|---------5---5---5--------------------------------------------------------|
A|--------------------------------------------------------------------------|
E|-----------3---3---3------------------------------------------------------|

         G

Chorus:
nos coma el diablo amor
que se trague tu calor
que eructe mi dolor x2
G|--------------------------------------------------------------------------|
D|--------------------------------------------------------------------------|
A|---------------------------------2-2-0-2-0-3-3-3-3-3----------------------|
E|---3-3-3-0-3-3-0-3-5-5-5-0-5-0-5------------------------------------------|
     G         A     B     C


Verse:

Cuando veo atravez del humo
me voy volando y tu eres mi guia
G|--------------------------------------------------------------------------|
D|--------------------------------------------------------------------------|
A|----5-5---------5---------------------------------------------------------|
E|--------5-5-3-3---3-5-5-0-0-5-0-0-5---------------------------------------|
    D    G     A

entre los mundos nos haremos viejos
donde algun dia estaremos tranquilos
G|--------------------------------------------------------------------------|
D|-------4---------4--------------------------------------------------------|
A|-----4---4-----5---5------------------------------------------------------|
E|---2-------2-3-------3-5-5-0-0-5-0-0-5------------------------------------|
   F#    G      A


Pre-Chorus:

Y no se por que
no me importa saber porque
G|---------------------------4-5-7-7-5-4------------------------------------|
D|-------3-3-3-2-1-----2-3-5------------3-----------------------------------|
A|----------------3-3-3-----------------------------------------------------|
E|--------------------------------------------------------------------------|
      F     C    G

No dejes que ....
G|--------------------------------------------------------------------------|
D|---------5---5---5--------------------------------------------------------|
A|--------------------------------------------------------------------------|
E|-----------3---3---3------------------------------------------------------|


 Chorus:
nos coma el diablo amor
que se trague tu calor
que eructe mi dolor x2
G|--------------------------------------------------------------------------|
D|--------------------------------------------------------------------------|
A|---------------------------------2-2-0-2-0-3-3-3-3-3----------------------|
E|---3-3-3-0-3-3-0-3-5-5-5-0-5-0-5------------------------------------------|
     G         A     B     C


Solo:
G|--------------------------------------------------------------------------|
D|--------------------------------------------------------------------------|
A|----5-5---------5---------------------------------------------------------|
E|--------5-5-3-3---3-5-5-0-0-5-0-0-5---------------------------------------|
    D    G     A
G|--------------------------------------------------------------------------|
D|-------4---------4--------------------------------------------------------|
A|-----4---4-----5---5------------------------------------------------------|
E|---2-------2-3-------3-5-5-0-0-5-0-0-5------------------------------------|
   F#    G      A

Pre-Chorus:

Y no se por que
no me importa saber porque
G|---------------------------4-5-7-7-5-4------------------------------------|
D|-------3-3-3-2-1-----2-3-5------------3-----------------------------------|
A|----------------3-3-3-----------------------------------------------------|
E|--------------------------------------------------------------------------|
      F     C    G

No dejes que ....
G|--------------------------------------------------------------------------|
D|---------5---5---5--------------------------------------------------------|
A|--------------------------------------------------------------------------|
E|-----------3---3---3------------------------------------------------------|


Chorus:
nos coma el diablo amor
que se trague tu calor
que eructe mi dolor x2
G|--------------------------------------------------------------------------|
D|--------------------------------------------------------------------------|
A|---------------------------------2-2-0-2-0-3-3-3-3-3----------------------|
E|---3-3-3-0-3-3-0-3-5-5-5-0-5-0-5------------------------------------------|
     G         A     B     C

MUCHAS GRACIAS Y PARA MAS CANCIONES SUGIERANME
         ¬°Guerrero, Mexico!

************************************

| x  Dead note
| g  Grace note
| (n) Ghost note
| h  Hammer-on
| p  Pull-off
| r  Release
| >  Accented note
| t  Tapping
| b  Bend
| br Bend release
| pb Pre-bend
| pbr Pre-bend release
| /  Slide up
| \  Slide down
| ~  Vibrato
| s  Slap
| P  Pop
| PM Palm mute
| TR Trill
| N  Tremolo
ⓘ Bass guitar tab for 'No Dejes Que Album' by Caifanes, an alternative rock band formed in 1987 from Mexico City, Mexico

Almost there ...

Sign in to get your own page with links to favourite songs and more. You are just one click away...

Login with Facebook Login with Google