Log in

One click and you are in

Login with Facebook Login with Google

Why sign up and log in

Guitar Tabs Explorer
Caifanes bass tabs for La vida no es eterna

Bass tabs

Tuning: Standard (E A D G)

Key: G

Difficulty: Intermediate

Title: La Vida no es Eterna
By: Caifanes
Album: Caifanes II El Diablito: (1990)
-------------------------------------------------------------------------------
               La Vida no es Eterna - Caifanes
-------------------------------------------------------------------------------
Tabbed by: MikeRyuk
E-mail: maadc96@gmail.com


Tuning: Standard


Intro:
Bass start at 00:13:
G|--------|-------|-------|-------77-7-|--------|-------|-------|---------7---|
D|-7-8----|-7-8---|-7-8---|-7-8--------|-7-8----|-7-8---|-7-8---|-7-8---------|
A|-----10-|-----8-|-----6-|-----5---5--|-----10-|-----8-|-----6-|-----5--5-5--|
E|--------|-------|-------|------------|--------|-------|-------|-------------|

G|--------|-------|-------|-------77-7-|--------|-------|-------|----------7--|
D|-7-8----|-7-8---|-7-8---|-7-8--------|-7-8----|-7-8---|-7-8---|-7-8---------|
A|-----10-|-----8-|-----6-|-----5---5--|-----10-|-----8-|-----6-|-----5--55---|
E|--------|-------|-------|------------|--------|-------|-------|-------------|


Verse:
"Mira cómo..." 00:43:
G|----------7-|--------------|-------------|--------------||x3
D|-5--5-5--5-5|-3--3-3-------|-----------8-|--------------||
A|------------|--------------|-6--6-6--66-6|-5--5-5-------||
E|------------|--------------|-------------|--------------||

G|----------7-|--------------|-------------|--------------|
D|-5--5-5--5-5|-3--3-3-------|-----------8-|--------------|
A|------------|--------------|-6--6-6--66-6|-5-5--8-8-6-5-|
E|------------|--------------|-------------|--------------|

Chorus:
"Mira que la vida no es eterna" 01:15:
G|---------|----------|---------|---------|
D|---------|1-1-------|---------|---------|
A|--1-1-1--|---1-1-1--|0-1-3-3--|0-1-3-3--|
E|---------|----------|---------|---------|
"En cualquier momento nos olvida" 01:22:
G|---------|----------|---------|---------|
D|---------|1-1-------|---------|---------|
A|--1-1-1--|---1-1-1--|0-1-3-3--|0-1-3-3--|
E|---------|----------|---------|---------|

Pre-Verse: 01:30:
G|--------|-------|-------|-------77-7-|--------|-------|-------|----------7--|
D|-7-8----|-7-8---|-7-8---|-7-8--------|-7-8----|-7-8---|-7-8---|-7-8---------|
A|-----10-|-----8-|-----6-|-----5---5--|-----10-|-----8-|-----6-|-----5--55---|
E|--------|-------|-------|------------|--------|-------|-------|-------------|


Verse:
"Mira cómo..." 01:46:
G|----------7-|--------------|-------------|--------------|
D|-5--5-5--5-5|-3--3-3-------|-----------8-|--------------|
A|------------|--------------|-6--6-6--66-6|-5--5-5-------|
E|------------|--------------|-------------|--------------|
"Antes que pienses..." 01:53:
G|----------7-|--------------|-------------|--------------|
D|-5--5-5--5-5|-3--3-3-------|-----------8-|--------------|
A|------------|---------3----|-6--6-6--66-6|-5--5-5-------|
E|------------|-------1------|-------------|--------------|
"Mira cómo..." 02:01:
G|----------7-|--------------|-------------|--------------|
D|-5--5-5--5-5|-3--3-3-------|-----------8-|--------------|
A|------------|--------------|-6--6-6--66-6|-5--5-5-------|
E|------------|--------------|-------------|--------------|
"Y tú..." 02:09:
G|----------7-|--------------|-------------|--------------|
D|-5--5-5--5-5|-3--3-3-------|-----------8-|--------------|
A|------------|---------3----|-6--6-6--66-6|-5-5--8-8-6-5-|
E|------------|-------1------|-------------|--------------|


Chorus:
"Mira que la vida no es eterna" 02:17:
G|---------|----------|---------|---------|
D|---------|1-1-------|---------|---------|
A|--1-1-1--|---1-1-1--|0-1-3-3--|0-1-3-3--|
E|---------|----------|---------|---------|
"En cualquier momento nos olvida" 01:22:
G|---------|----------|---------|---------|
D|---------|1-1-------|---------|---------|
A|--1-1-1--|---1-1-1--|0-1-3-3--|0-1-3-3--|
E|---------|----------|---------|---------|


Bridge: 02:32:          |02:36:
G|----------------|----------------|----------------|----------------|
D|----------------|----------------|----------------|----------------|
A|----------------|----------------|----------------|----------------|
E|-4-4-4-4-4-4-4-4|-4-4-4-4-4-4-4-4|-6-6-6-6-6-6-6-6|-6-6-6-6-6-6-6-6|
02:40:
G|----------------|----------------|
D|----------------|----------------|
A|----------------|----------------|
E|-4-4-4-4-4-4-4-4|-4-4-4-4-4-4-4-4|


Chorus:
"Mira que la vida no es eterna"
 |02:44:              |02:48:
G|----------------|----------------|----------------|----------------||x3
D|----------------|----------------|----------------|----------------||
A|-1-1-1-1-1-1-1-1|-1-1-1-1-1-1-1-1|-3-3-3-3-3-3-3-3|---------6-6-5-6||
E|----------------|----------------|----------------|-4-4-4-4--------||
"En cualquier momento nos olvida"
 |03:07:              |03:11:
G|----------------|----------------|----------------|----------------|
D|----------------|----------------|----------------|----------------|
A|-1-1-1-1-1-1-1-1|-1-1-1-1-1-1-1-1|-3-3-3-3-3-3-3-3|---------6-6-5-0|
E|----------------|----------------|----------------|-4-4-4-4--------|


Outro: 03:15:
G|----------------|----------------|----------------|-----------7----|
D|----------------|----------------|----------------|----------------|
A|----------------|----------------|-----5-5-5-5-5-5|-8-6-5---55-5---|
E|-3-3-3-3-3-3-3-3|-1-1-1-1-1-1-1-1|-6-3------------|----------------|
03:23:
G|----------------|----------------|----------------|-----------7----||x2
D|----------------|----------------|----------------|----------------||
A|-0-1------------|-0-1------------|-----5-5-5-5-5-5|-8-6-5---55-5---||
E|-----3-3-3-3-3-3|-----1-1-1-1-1-1|-6-3------------|----------------||
03:38:
G|----------------|----------------|----------------|----------------|
D|----------------|----------------|----------------|----------------|
A|-0-1------------|-0-1------------|-----5-5-5-5-5-5|-8-6-5--5-------|
E|-----3-3-3-3-3-3|-----1-1-1-1-1-1|-6-3------------|----------5-6-3-|
ⓘ Bass guitar tab for 'La Vida No Es Eterna' by Caifanes, an alternative rock band formed in 1987 from Mexico City, Mexico

Almost there ...

Sign in to get your own page with links to favourite songs and more. You are just one click away...

Login with Facebook Login with Google