Log in

One click and you are in

Login with Facebook Login with Google

Why sign up and log in

Guitar Tabs Explorer
Caifanes tabs for Afuera

Guitar tabs

Bueno, ahi esta otra vez "Afuera" de Caifanes. Esta escrita totalmente por
compases continuos. Hay que guiarse por la letra, y no por la separacion de
la tablatura. Si alguien nota algun error que me lo haga saber en
"ddiaz@nether.net" o "Daniel.Diaz@f2.n971.z4.fidonet.org". Ahi va
w = unidad: redonda             W = silencio del mismo valor
h = mitad: blanca               H = silencio del mismo valor
q = cuarta: negra               Q = silencio del mismo valor
e = octava: corchea             A chord diagramE MajorE = silencio del mismo valor


   Tacet
e|----------------------|---------------------|-----------------------|----|
A chord diagramBB|----------------------|---------------------|-----------------------|----|
A chord diagramG+G|----------------------|---------------------|-----------------------|----|
A chord diagramD MajorD|--9--7-------9-7---7--|-9--7-------9-7---7--|---9--7-------9-7---7--|-9--|
A chord diagramA augmentedA|--------9--------9----|-------9--------9----|---------9--------9----|----|
A chord diagramE MajorE|----------------------|---------------------|-----------------------|----|

Aqui entran los teclados con un sonido suave e interminable desde A chord diagramBB hasta A chord diagramBB
de la siguiente octava, completando con A chord diagramD MajorD y A chord diagramF#F# para un A chord diagramB minorBm
  (A chord diagramB minorBm)
   A chord diagramB minorBm
e|----------------------|---------------------|-----------------------|----|
A chord diagramBB|----------------------|---------------------|-----------------------|----|
A chord diagramG+G|----------------------|---------------------|-----------------------|----|
A chord diagramD MajorD|--9--7-------9-7---7--|-9--7-------9-7---7--|---9--7-------9-7---7--|-9--|
A chord diagramA augmentedA|--------9--------9----|-------9--------9----|---------9--------9----|----|
A chord diagramE MajorE|----------------------|---------------------|-----------------------|----|

(Cambio a piano electrico)
      (A chord diagramE minor 7Em7)     (A chord diagramE minor 7Em7)     (A chord diagramE minor 7Em7)     (A chord diagramE minorEm)
  A chord diagramB minorBm   A chord diagramE minor 7Em7  A chord diagramB minorBm   A chord diagramE minor 7Em7  A chord diagramB minorBm   A chord diagramE minor 7Em7  A chord diagramB minorBm   A chord diagramE minorEm
|-------------------|--------------------|
|-------------------|--------------------|
|-------------------|--------------------|
|-------------------|--------------------|
|-------------------|--------------------|
|-------------------|--------------------|
  A chord diagramE MajorE    Q.   A chord diagramE MajorE    Q.    A chord diagramE MajorE    Q.   A chord diagramE MajorE    Q.

		(BDF#)                      (DF#)(BF#)(DF#)
  A chord diagramB minorBm            A chord diagramB minorBm        A chord diagramB minorBm                A chord diagramB minorBm
|-------------|---------|-----------------|----------------|
|-------------|---------|-----------------|----------------|
|-------------|---------|-----------------|----------------|
|-------------|---------|-----------------|----------------|
|-------------|---------|-----------------|----------------|
|-------------|---------|-----------------|----------------|
  Muchos anios uno cree, que el ...
			   (GBE)
  A chord diagramE minorEm                       A chord diagramE minorEm
|------------------------|--------------------------|
|------------------------|--------------------------|
|------------------------|--------------------------|
|-------2-0---------2-0--|-------2-0----------2--0--|
|-----2-----------2------|-----2-----------2--------|
|--0-----------0---------|--0-----------0-----------|
 -pente,                                   ya no te
			  (F#A#C#)
  A chord diagramF#F#                       A chord diagramF#F#
|-------------------------|------------------------|
|-------------------------|------------------------|
|-------------------------|------------------------|
|--------2-0---------2-0--|-------2-0---------2-0--|
|------2-----------2------|-----2-----------2------|
|--0------------0---------|--0-----------0---------|
  paras.

			    (A chord diagramBB)(DF#)         (DF#)(BF#)(DF#)
  A chord diagramB minorBm              A chord diagramB minorBm        A chord diagramB minorBm               A chord diagramB minorBm
|---------------|---------|----------------|---------------|
|---------------|---------|----------------|---------------|
|---------------|---------|----------------|---------------|
|---------------|---------|----------------|---------------|
|-2-------------|---------|-2--------------|---------------|
|---------------|---------|----------------|---------------|
  Que el amor es temporal, ...

  A chord diagramE minorEm                       A chord diagramE minorEm
|------------------------|--------------------------|
|------------------------|--------------------------|
|------------------------|--------------------------|
|-------2-0---------2-0--|-------2-0----------2--0--|
|-----2-----------2------|-----2-----------2--------|
|--0-----------0---------|--0-----------0-----------|
 -pente,                                  estas ...

  A chord diagramF#F#                       A chord diagramF#F#
|------------------------|------------------------|
|------------------------|------------------------|
|------------------------|------------------------|
|-------2-0---------2-0--|-------2-0---------2-0--|
|-----2-----------2------|-----2-----------2------|
|--0-----------0---------|--0-----------0---------|
  solo.

  (B<E)
  A chord diagramB minorBm              A chord diagramB minorBm               A chord diagramE minorEm              A chord diagramF#F#
|-----2---------|-----2----------|-----2---------|-----2----------|
|-0-0---3-3-2-3-|-0-0---3-3-2-3--|-0-0---3-3-2-3-|-2-2---3-3-2-3--|
|---------------|----------------|---------------|----------------|
|---------------|----------------|---------------|----------------|
|---------------|----------------|---------------|----------------|
|---------------|----------------|---------------|----------------|
  Afuera, - - - - Afuera tu no ex...
  A chord diagramB minorBm              A chord diagramB minorBm               A chord diagramE minorEm              A chord diagramF#F#
|-----2---------|-----2----------|-----2---------|-----2----------|
|-0-0---3-3-2-3-|-0-0---3-3-2-3--|-0-0---3-3-2-3-|-2-2---3-3-2-3--|
|---------------|----------------|---------------|----------------|
|---------------|----------------|---------------|----------------|
|---------------|----------------|---------------|----------------|
|---------------|----------------|---------------|----------------|
  Afuera, - - - - Afuera no te --  cuido...
  A chord diagramB minorBm              A chord diagramB minorBm               A chord diagramE minorEm              A chord diagramF#F#
|-----2---------|-----2----------|-----2---------|-----2----------|
|-0-0---3-3-2-3-|-0-0---3-3-2-3--|-0-0---3-3-2-3-|-2-2---3-3-2-3--|
|---------------|----------------|---------------|----------------|
|---------------|----------------|---------------|----------------|
|---------------|----------------|---------------|----------------|
|---------------|----------------|---------------|----------------|
 Afuera, - - - -- te ...
  A chord diagramB minorBm              A chord diagramB minorBm               A chord diagramE minorEm              A chord diagramF#F#
|-----2---------|-----2----------|-----2---------|-----2----------|
|-0-0---3-3-2-3-|-0-0---3-3-2-3--|-0-0---3-3-2-3-|-2-2---3-3-2-3--|
|---------------|----------------|---------------|----------------|
|---------------|----------------|---------------|----------------|
|---------------|----------------|---------------|----------------|
|---------------|----------------|---------------|----------------|
 Afuera, - - - -- nadie es - - - - nada...
  A chord diagramG minorGm     A chord diagramA minorAm     A chord diagramB minorBm     A chord diagramB minorBm
|------|------|------|------|
|------|------|------|------|
|------|------|------|------|
|------|------|------|------|
|------|------|------|------|
|------|------|------|------|
  Ahhhhhhhhhh   Ahhh
	 Ahhh

				(BDF#)            (DF#)(BF#)
  A chord diagramB minorBm                  A chord diagramB minorBm        A chord diagramB minorBm                A chord diagramB minorBm
|-------------------|---------|-----------------|---------------|
|-------------------|---------|-----------------|---------------|
|-------------------|---------|-----------------|---------------|
|-------------------|---------|-----------------|---------------|
|-------------------|---------|-----------------|---------------|
|-------------------|---------|-----------------|---------------|
  Siguen los anios y uno esta, creyendo que ....

  A chord diagramE minorEm                       A chord diagramE minorEm
|------------------------|--------------------------|
|------------------------|--------------------------|
|------------------------|--------------------------|
|-------2-0---------2-0--|-------2-0----------2--0--|
|-----2-----------2------|-----2-----------2--------|
|--0-----------0---------|--0-----------0-----------|
-pente,                                    ya ....

  A chord diagramF#F#                        A chord diagramF#F#
|-------------------------|------------------------|
|-------------------------|------------------------|
|-------------------------|------------------------|
|--------2-0---------2-0--|-------2-0---------2-0--|
|------2-----------2------|-----2-----------2------|
|--0------------0---------|--0-----------0---------|
 -diste.

			       (A chord diagramBB)(DF#)     (DF#)(BF#)(DF#)
  A chord diagramB minorBm                A chord diagramB minorBm         A chord diagramB minorBm           A chord diagramB minorBm
|------------------|---------|------------|-----------------|
|------------------|---------|------------|-----------------|
|------------------|---------|------------|-----------------|
|------------------|---------|------------|-----------------|
|-2----------------|---------|-2----------|-----------------|
|------------------|---------|------------|-----------------|
  Y uno cree que puede creer, y tener .....

  A chord diagramE minorEm                       A chord diagramE minorEm
|------------------------|---------------------------|
|------------------------|---------------------------|
|------------------------|---------------------------|
|-------2-0---------2-0--|-------2-0----------2--0---|
|-----2-----------2------|-----2-----------2---------|
|--0-----------0---------|--0-----------0------------|
-pente,                                   no tienes

  A chord diagramF#F#
|-------------------------|-----------------------|
|-------------------------|-----------------------|
|-------------------------|-----------------------|
|--------2-0---------2-0--|-------2-0---------2-0-|
|------2-----------2------|-----2-----------2-----|
|--0------------0---------|--0-----------0--------|
  nada.
  (B<E)
  A chord diagramB minorBm              A chord diagramB minorBm               A chord diagramE minorEm              A chord diagramF#F#
|-----2---------|-----2----------|-----2---------|-----2----------|
|-0-0---3-3-2-3-|-0-0---3-3-2-3--|-0-0---3-3-2-3-|-2-2---3-3-2-3--|
|---------------|----------------|---------------|----------------|
|---------------|----------------|---------------|----------------|
|---------------|----------------|---------------|----------------|
|---------------|----------------|---------------|----------------|
  Afuera, - - - - Afuera tu no ex-...
  A chord diagramB minorBm              A chord diagramB minorBm               A chord diagramE minorEm              A chord diagramF#F#
|-----2---------|-----2----------|-----2---------|-----2----------|
|-0-0---3-3-2-3-|-0-0---3-3-2-3--|-0-0---3-3-2-3-|-2-2---3-3-2-3--|
|---------------|----------------|---------------|----------------|
|---------------|----------------|---------------|----------------|
|---------------|----------------|---------------|----------------|
|---------------|----------------|---------------|----------------|
  Afuera, - - - - Afuera no ...
  A chord diagramB minorBm              A chord diagramB minorBm               A chord diagramE minorEm              A chord diagramF#F#
|-----2---------|-----2----------|-----2---------|-----2----------|
|-0-0---3-3-2-3-|-0-0---3-3-2-3--|-0-0---3-3-2-3-|-2-2---3-3-2-3--|
|---------------|----------------|---------------|----------------|
|---------------|----------------|---------------|----------------|
|---------------|----------------|---------------|----------------|
|---------------|----------------|---------------|----------------|
 Afuera, - - - -- te desbarata el -...
  A chord diagramB minorBm              A chord diagramB minorBm               A chord diagramE minorEm              A chord diagramF#F#
|-----2---------|-----2----------|-----2---------|-----2----------|
|-0-0---3-3-2-3-|-0-0---3-3-2-3--|-0-0---3-3-2-3-|-2-2---3-3-2-3--|
|---------------|----------------|---------------|----------------|
|---------------|----------------|---------------|----------------|
|---------------|----------------|---------------|----------------|
|---------------|----------------|---------------|----------------|
 Afuera, - - - -- nadie es - - - - nada....
  A chord diagramG minorGm     A chord diagramA minorAm
|------|------|
|------|------|
|------|------|
|------|------|
|------|------|
|------|------|
  Ahhhhhhhhhh
	 Ahhh

  A chord diagramB minorBm
|-10-7-9-----------10--7-9----------|--10-7-9----------7-----|
|--------10-7--------------10-7-----|---------10-7-(10)------|
|-------------9-7---------------9-7-|------------------------|
|-----------------------------------|------------------------|
|-----------------------------------|------------------------|
|-----------------------------------|------------------------|
 Ahhhhhhhhhhhhhhhhhhhhhhhhhhhhhhhh

    Version radio:
    Tacet
R>|-10-7-9----------|
R>|--------10-7-----|
R>|-------------9-7-|
R>|-----------------|
R>|-----------------|
R>|-----------------|
    -------w-------

    Version video:
    Tacet
V>|-10-7-9-----------10--7-9----------|-10-7-9----------|
V>|--------10-7--------------10-7-----|--------10-7-----|
V>|-------------9-7---------------9-7-|-------------9-7-|
V>|-----------------------------------|-----------------|
V>|-----------------------------------|-----------------|
V>|-----------------------------------|-----------------|

V>|-----------------------|----------|
V>|-----------------------|----------|
V>|-7-777-7-777-7-777-7-77|76--------|
V>|-----------------------|---9-7-9--|
V>|-----------------------|----------|
V>|-----------------------|----------|

V>|-------------------------------------------------------------------------->
V>|-------------------------------------------------------------------------->
V>|---6-7-777-7-777-7-777-7-776-7-9-11-111111-11-111111-11-111111-11-9-7-6--->
V>|-9----------------------------------------------------------------------9->
V>|-------------------------------------------------------------------------->
V>|-------------------------------------------------------------------------->


**------**

"SOLO"
------
A chord diagramE MajorE |--------------------|   |--------------------|
A chord diagramBB |--------------------|   |--------------------|
A chord diagramG+G |--7--7--7--7-7-7-7--| % |--7-7-7-7-6-4-2-2/4-|
A chord diagramD MajorD |--------------------|   |--------------------|
A chord diagramA augmentedA |--------------------|   |--------------------|
A chord diagramE MajorE |--------------------|   |--------------------|

A chord diagramE MajorE |-------------------------|----------------------------|
A chord diagramBB |-------------------------|----------------------------|
A chord diagramG+G |--7-7-7-7-6-7-9/11--11-11|--11--9--7--6-4-------7--9--|
A chord diagramD MajorD |-------------------------|----------------------------|
A chord diagramA augmentedA |-------------------------|----------------------------|
A chord diagramE MajorE |-------------------------|----------------------------|

A chord diagramE MajorE |-------------------------|----------------------------|
A chord diagramBB |-------------------------|----------------------------|
A chord diagramG+G |--/11--11---11--11-9-7-9-|-9/11--11--11--11-----7--9--|
A chord diagramD MajorD |-------------------------|----------------------------|
A chord diagramA augmentedA |-------------------------|----------------------------|
A chord diagramE MajorE |-------------------------|----------------------------|

A chord diagramE MajorE |-------------------------|----------------------------|
A chord diagramBB |-------------------------|----------------------------|
A chord diagramG+G |--/11--11---11--11-14-12-|-11-12-11~~~~~--------7--9--|
A chord diagramD MajorD |-------------------------|----------------------------|
A chord diagramA augmentedA |-------------------------|----------------------------|
A chord diagramE MajorE |-------------------------|----------------------------|
				 h  p
A chord diagramE MajorE |-------------------------|----------------------------|
A chord diagramBB |-------------------------|----------------------------|
A chord diagramG+G |--/11--11-------14----12-|--11^12^11---9--7----7--9---|
A chord diagramD MajorD |-------------------------|----------------------------|
A chord diagramA augmentedA |-------------------------|----------------------------|
A chord diagramE MajorE |-------------------------|----------------------------|
		h
A chord diagramE MajorE |-------------------------|----------------------------|
A chord diagramBB |-----------10^12-----10--|---------------------12--10-|
A chord diagramG+G |--/11--11----------------|--11~~~~~-------------------|
A chord diagramD MajorD |-------------------------|----------------------------|
A chord diagramA augmentedA |-------------------------|----------------------------|
A chord diagramE MajorE |-------------------------|----------------------------|

A chord diagramE MajorE |-------------------------|----------------------------|
A chord diagramBB |--12--10--12-------------|----------------------------|
A chord diagramG+G |-------------11-----9--7-|--9--7----------------------|
A chord diagramD MajorD |-------------------------|---------9--7--9------------|
A chord diagramA augmentedA |-------------------------|----------------------------|
A chord diagramE MajorE |-------------------------|----------------------------|

A chord diagramE MajorE |-------------------------|
A chord diagramBB |-------------------------|
A chord diagramG+G |------------------6--~~~~|
A chord diagramD MajorD |-----9--9---7--9-----9---|
A chord diagramA augmentedA |--/9---------------------|
A chord diagramE MajorE |-------------------------|

    lg276942@hp9k.lag.itesm.mx (Leonardo C.)
**------**

<------|.............
<-0-2--|.3....3......
<------|.............
<------|.............
<------|....2...2....
<------|.............

  A chord diagramB minorBm                                    A chord diagramD MajorD
|------------------------------------------------|
|-3----3----3----3----3---3----3---3----7----7---|
|------------------------------------------------|
|------------------------------------------------|
|----2---2-----2---2----2---2----2---2-----5---5-|
|------------------------------------------------|

  A chord diagramB minorBm                                    A chord diagramD MajorD
|------------------------------------------------|
|-3----3----3----3----3---3----3---3----7----7---|
|------------------------------------------------|
|------------------------------------------------|
|----2---2-----2---2----2---2----2---2-----5---5-|
|------------------------------------------------|

  A chord diagramB minorBm                                    A chord diagramA augmentedA
|------------------------------------------------|
|-3----3----3----3----3---3----3---3----2----2---|
|------------------------------------------------|
|------------------------------------------------|
|----2---2-----2---2----2---2----2---2-----0---0-|
|------------------------------------------------|

  A chord diagramB minorBm                                        A chord diagramB minorBm A chord diagramC# minorC#m
|------------------------------------------------|
|-3----3----3----3----3---3----3---3--------3--5-|
|------------------------------------------------|
|------------------------------------------------|
|----2---2-----2---2----2---2----2---------------|
|------------------------------------------------|

  A chord diagramD MajorD                                    A chord diagramG+G
|------------------------------------------------|
|-7----7----7----7----7---7----7---7---12---12---|
|------------------------------------------------|
|------------------------------------------------|
|----5---5-----5---5----5---5----5---5----10--10-|
|------------------------------------------------|

  A chord diagramD MajorD                                    A chord diagramG+G
|------------------------------------------------|
|-7----7----7----7----7---7----7---7---12---12---|
|------------------------------------------------|
|------------------------------------------------|
|----5---5-----5---5----5---5----5---5----10--10-|
|------------------------------------------------|

  A chord diagramD MajorD                                    A chord diagramC# minorC#m
|------------------------------------------------|
|-7----7----7----7----7---7----7---7----5----5---|
|------------------------------------------------|
|------------------------------------------------|
|----5---5-----5---5----5---5----5---5-----4---4-|
|------------------------------------------------|

  A chord diagramB minorBm
|------------------------------------------------|
|-3----3----3----3----3---3----3---3----2---2----|
|------------------------------------------------|
|------------------------------------------------|
|----2---2-----2---2----2---2----2---2----0---0--|
|------------------------------------------------|

  A chord diagramB minorBm                 A chord diagramA augmentedA       A chord diagramB minorBm                   A chord diagramA augmentedA       A chord diagramB minorBm
|-10--7-7--10--7-7---5-5-7-8-7----5--2-2--5--2-2--0-0-2-3-2--|
|--7--7-7---7--7-7---5-5-7-8-7----7--3-3--7--3-3--2-2-3-5-3--|
|------------------------------------------------------------|
|------------------------------------------------------------|
|------------------------------------------------------------|
|------------------------------------------------------------|

  A chord diagramB minorBm                 A chord diagramA augmentedA       A chord diagramB minorBm                   A chord diagramA augmentedA       A chord diagramB minorBm
|-10--7-7--10--7-7---5-5-7-8-7----5--2-2--5--2-2--0-0-2-3-2--|
|--7--7-7---7--7-7---5-5-7-8-7----7--3-3--7--3-3--2-2-3-5-3--|
|------------------------------------------------------------|
|------------------------------------------------------------|
|------------------------------------------------------------|
|------------------------------------------------------------|
  (B<E)
  A chord diagramB minorBm              A chord diagramB minorBm               A chord diagramE minorEm              A chord diagramF#F#
|-----2---------|-----2----------|-----2---------|-----2----------|
|-0-0---3-3-2-3-|-0-0---3-3-2-3--|-0-0---3-3-2-3-|-2-2---3-3-2-3--|
|---------------|----------------|---------------|----------------|
|---------------|----------------|---------------|----------------|
|---------------|----------------|---------------|----------------|
|---------------|----------------|---------------|----------------|
  Afuera, - - - - Afuera tu no ex-....
  A chord diagramB minorBm              A chord diagramB minorBm               A chord diagramE minorEm              A chord diagramF#F#
|-----2---------|-----2----------|-----2---------|-----2----------|
|-0-0---3-3-2-3-|-0-0---3-3-2-3--|-0-0---3-3-2-3-|-2-2---3-3-2-3--|
|---------------|----------------|---------------|----------------|
|---------------|----------------|---------------|----------------|
|---------------|----------------|---------------|----------------|
|---------------|----------------|---------------|----------------|
  Afuera, - - - - Afuera no te --  ....
  A chord diagramB minorBm              A chord diagramB minorBm               A chord diagramE minorEm              A chord diagramF#F#
|-----2---------|-----2----------|-----2---------|-----2----------|
|-0-0---3-3-2-3-|-0-0---3-3-2-3--|-0-0---3-3-2-3-|-2-2---3-3-2-3--|
|---------------|----------------|---------------|----------------|
|---------------|----------------|---------------|----------------|
|---------------|----------------|---------------|----------------|
|---------------|----------------|---------------|----------------|
 Afuera, - - - -- te desbarata ...
  A chord diagramB minorBm              A chord diagramB minorBm               A chord diagramE minorEm              A chord diagramF#F#
|-----2---------|-----2----------|-----2---------|-----2----------|
|-0-0---3-3-2-3-|-0-0---3-3-2-3--|-0-0---3-3-2-3-|-2-2---3-3-2-3--|
|---------------|----------------|---------------|----------------|
|---------------|----------------|---------------|----------------|
|---------------|----------------|---------------|----------------|
|---------------|----------------|---------------|----------------|
 Afuera, - - - -- nadie es - - - - nada, ....

  A chord diagramG minorGm     A chord diagramA minorAm     A chord diagramB minorBm       Tacet subito
|------|------|--------|.........
|------|------|--------|.........
|------|------|--------|.........
|------|------|--------|.........
|------|------|--------|.........
|------|------|--------|.........
  Ahhh   Ahhh   Ahhh

  Tacet
|-----3-2-------3-2-------3-2-------3-2-|---|
|-0-0-------0-0-------0-0-------0-0-----|-0-|
|---------------------------------------|---|
|---------------------------------------|---|
|---------------------------------------|---|
|---------------------------------------|---|
					  w
  Acordes usados

      A chord diagramB minorBm   A chord diagramF#F#   A chord diagramE minorEm   A chord diagramD MajorD    A chord diagramA augmentedA    A chord diagramC# minorC#m  A chord diagramG+G
e|----2----2----0----5----0----4----10----|
A chord diagramBB|----3----2----0----7----2----5----12----|
A chord diagramG+G|----4----3----0----7----2----6----12----|
A chord diagramD MajorD|----4----4----2----7----2----6----12----|
A chord diagramA augmentedA|----2----4----2----5----0----4----10----|
A chord diagramE MajorE|---------2----0-------------------------|

 A chord diagramB minorBm          A chord diagramF#F#          A chord diagramG+G
 A chord diagramBB A chord diagramD MajorD A chord diagramF#F#      A chord diagramA#A# A chord diagramC#C# A chord diagramF#F#    A chord diagramG+G A chord diagramBB A chord diagramD MajorD

 A chord diagramE minorEm          A chord diagramD MajorD
 A chord diagramE MajorE A chord diagramG+G A chord diagramBB       A chord diagramF#F# A chord diagramA augmentedA A chord diagramD MajorD

 A chord diagramA augmentedA           A chord diagramC# minorC#m
 A chord diagramA augmentedA A chord diagramC#C# A chord diagramE MajorE      A chord diagramC#C# A chord diagramE MajorE A chord diagramG#G#


Esta es una hermosa cancion de Caifanes, espero que le entiendas en la parte
de los requintos. Estoy seguro de que hay un error en la parte del video,
ojala que alguien lo saque y me lo diga. Las notas entre parentesis son
para el teclado, con piano electrico en casi toda la cancion. La parte de
B<E es ir a A chord diagramBB y bajar a A chord diagramE MajorE (B/A/G/F/E). La parte de teclados no esta sacada
con mucha emocion, es nadamas para que se tenga una idea. Casi todos los
requintos me los paso Javier, si no hubiera sido por el no la hubiera
escrito, y tambien le quiero agradecer a Leonardo que me permitiera poner
parte de su TAB en el mio, THX!

Escribeme de perdido para rayarmela:

Daniel Diaz:
 ddiaz@nether.net
 Daniel.Diaz@f2.n971.z4.fidonet.org
Leonardo C.:
 lg276942@hp9k.lag.itesm.mx

Monterrey, Nuevo Leon, Mexico
Torreon, Coahuila, Mexico

Daniel Diaz
Leonardo Calva Medinilla
ⓘ Guitar tab for 'Afuera' by Caifanes, an alternative rock band formed in 1987 from Mexico City, Mexico

Almost there ...

Sign in to get your own page with links to favourite songs and more. You are just one click away...

Login with Facebook Login with Google