Log in

One click and you are in

Login with Facebook Login with Google

Why sign up and log in

Guitar Tabs Explorer
Cage The Elephant bass tabs for Spiderhead

Bass tabs

Cage the Elephant - Spiderhead


Intro:
G|---------------|--------------------------------------------------------------(x2)-|
D|-2--2--2-2-2-2-|---------5-5-5-----------------------------5-5-5-------------------|
A|---------------|-------5-------5-7-7-7-7-7-7-7-7-5-------5-------5-7-7-7-5-5-3-3-0-|
E|---------------|-3-3-3-----------------------------3-3-3---------------------------|
Verse:
G|-------------------------------------------------------------------|
D|---------5-5-5-----------------------------5-5-5-------------------|
A|-------5-------5-7-7-7-7-7-7-7-7-5-------5-------5-7-7-7-5-5-3-3-0-| x3
E|-3-3-3-----------------------------3-3-3---------------------------|

G|--------------------------------------------------------------------------|
D|---------5-5-5-----------------------------5-5-5--------------------------|
A|-------5-------5-7-7-7-7-7-7-7-7-5-------5-------5------------------------|
E|-3-3-3-----------------------------3-3-3-----------7--7-7-5-5-5-5-5-5-5-5-|


Chorus:
G|----------------------------------------|----------------|
D|---------5-5-5----------------5-5-5-----|----------------|
A|-------5-------5------------5-------5---|-2-2--2--2-2--2-| x2
E|-3-3-3-----------3---3-3-3------------3-|----------------|

G|---------------------------------------------------------------------|
D|---------------------------------------------------------------------|
A|-------------2-2-2-2-----------------5-5-5-5-5-5-5-5-5-5-5-5-5-5-5-5-|
E|-3--3--3--3----------0-0-0-0-0-0-0-0---------------------------------|

Post-Chorus:
G|-------------------------------------------------------------------|
D|---------5-5-5-----------------------------5-5-5-------------------|
A|-------5-------5-7-7-7-7-7-7-7-7-5-------5-------5-7-7-7-5-5-3-3-0-|
E|-3-3-3-----------------------------3-3-3---------------------------|

Bridge:
G|------------------------------------------------------------------------------------|
D|------------------------------------------------------------------------------------|
A|------------------------------------------------------------------------------------|
E|-7--7--7--7--5---7--7--7--7--5---7--7--7--7--5-5--5-5--5-5--5-5--5-5--5-5--5-5--5-5-|

Final Chorus:
G|----------------------------------------|-------------|
D|---------5-5-5---------------5-5-5------|-------------|
A|-------5-------5-----------5-------5----|-------------| x2
E|-3-3-3------------3--3-3-3------------3-|-2-2-2-2-2-2-|

G|-----------------------------------------------------------------------------|
D|-----------------------------------------------------------------------------|
A|-------------2-2-2-2------------------------------2-2-2-2--------------------|
E|-3--3--3--3----------0-0-0-0-0-0-0-0--3--3--3--3----------0-0-0-0-0--0--0--0-|

G|---------------------------------------------------------------------|
D|---------------------------------------------------------------------|
A|-------------2-2-2-2-----------------5-5-5-5-5-5-5-5-5-5-5-5-5-5-5-5-|
E|-3--3--3--3----------0-0-0-0-0-0-0-0---------------------------------|


Outro:
G|-------------------------------------------|----------|
D|-------------------------------------------|----------|
A|------------2-2-2-2-7--7-7-7-7-5-5-5-3-3-3-|----------|
ⓘ Bass guitar tab for 'Spiderhead' by Cage The Elephant, an alternative rock band formed in 2007 from Bowling Green, USA

Almost there ...

Sign in to get your own page with links to favourite songs and more. You are just one click away...

Login with Facebook Login with Google