Log in

One click and you are in

Login with Facebook Login with Google

Why sign up and log in

Guitar Tabs Explorer
Cage The Elephant guitar tabs for Social cues

Guitar tabs

Tuning: Standard (E A D G B E)

Key: A chord diagramE minorEm

Difficulty: Novice

Intro/Verse:

e||--------------|--------------|--------------|--------------|
B||-----8----8---|-----7----7---|-----8----8---|-----7----2---|
G||-/9-----9---9-|-/7-----7---7-|-/9-----9---9-|-/7-----2---2-|
D||--------------|--------------|--------------|--------------|
A||--------------|--------------|--------------|--------------|
E||--------------|--------------|--------------|--------------|

e|--------------|--------------|---------------|--------------||
B|-----8----8---|-----7-----7--|-----2----2----|-----3----3---||
G|-/9-----9---9-|-/7-----7---7-|-/2-----2---2--|-/4-----4---4-||
D|--------------|--------------|---------------|--------------||
A|--------------|--------------|---------------|--------------||
E|--------------|--------------|---------------|--------------||


Pre-Chorus:
                                     x3
e||-----7-------7---|-----7-------7---||-----2-------2---|-----2--------|
B||---8---8---8---8-|---7---7---7---7-||---2---2---2---2-|---3---3------|
G||-9-------9-------|-7-------7-------||-2-------2-------|-4-------4--4-|
D||-----------------|-----------------||-----------------|--------------|
A||-----------------|-----------------||-----------------|--------------|
E||-----------------|-----------------||-----------------|--------------|

Chorus:

e||-12-------12-------12-|-14-------14-------14-|-19-------19-------19-|
B||----12-------12-------|----14-------14-------|----19-------19-------|
G||-------12-------12----|-------14-------14----|-------19-------19----|
D||----------------------|----------------------|----------------------|
A||----------------------|----------------------|----------------------|
E||----------------------|----------------------|----------------------|

                     x4
e|----19-----14----14-||
B|-19----19-----14----||
G|--------------------||
D|--------------------||
A|--------------------||
E|--------------------||


Seque: & Verse:

e||--------------|--------------|--------------|--------------|
B||-----8----8---|-----7----7---|-----8----8---|-----7----2---|
G||-/9-----9---9-|-/7-----7---7-|-/9-----9---9-|-/7-----2---2-|
D||--------------|--------------|--------------|--------------|
A||--------------|--------------|--------------|--------------|
E||--------------|--------------|--------------|--------------|

e|--------------|--------------|---------------|--------------||
B|-----8----8---|-----7-----7--|-----2----2----|-----3----3---||
G|-/9-----9---9-|-/7-----7---7-|-/2-----2---2--|-/4-----4---4-||
D|--------------|--------------|---------------|--------------||
A|--------------|--------------|---------------|--------------||
E|--------------|--------------|---------------|--------------||


Pre-Chorus:

e||-----7-------7---|-----7-------7---||-----2-------2---|-----2--------|
B||---8---8---8---8-|---7---7---7---7-||---2---2---2---2-|---3---3------|
G||-9-------9-------|-7-------7-------||-2-------2-------|-4-------4--4-|
D||-----------------|-----------------||-----------------|--------------|
A||-----------------|-----------------||-----------------|--------------|
E||-----------------|-----------------||-----------------|--------------|


Chorus:

e||-12-------12-------12-|-14-------14-------14-|-19-------19-------19-|
B||----12-------12-------|----14-------14-------|----19-------19-------|
G||-------12-------12----|-------14-------14----|-------19-------19----|
D||----------------------|----------------------|----------------------|
A||----------------------|----------------------|----------------------|
E||----------------------|----------------------|----------------------|

                     x4
e|----19-----14----14-||
B|-19----19-----14----||
G|--------------------||
D|--------------------||
A|--------------------||
E|--------------------||


Verse:

e||--------------|--------------|--------------|--------------|
B||-----8----8---|-----7----7---|-----8----8---|-----7----2---|
G||-/9-----9---9-|-/7-----7---7-|-/9-----9---9-|-/7-----2---2-|
D||--------------|--------------|--------------|--------------|
A||--------------|--------------|--------------|--------------|
E||--------------|--------------|--------------|--------------|


Bridge: Keyboard simulation played over Verse riff

e||-----------||---------|-----------|-----------|
B||-------5-7-||-8--5--7-|-------5-7-|-----5-7---|
G||-4-6-7-----||---------|-4-6-7-----|-6-7-----4-| x2
D||-----------||---------|-----------|-----------|
A||-----------||---------|-----------|-----------|
E||-----------||---------|-----------|-----------|


Chorus:

e||-12-------12----------|-14-------14-----------|-19-------19-------19-|
B||----12-------12----12-|----14-------14----14--|----19-------19-------|
G||-------12-------12----|-------14-------14-----|-------19-------19----|
D||----------------------|-----------------------|----------------------|
A||----------------------|-----------------------|----------------------|
E||----------------------|-----------------------|----------------------|

                     x4
e|----19-----14----14-|| Let this last note D: ring out
B|-19----19-----14----||
G|--------------------||
D|--------------------||
A|--------------------||
E|--------------------||


************************************

| ||----|| play bar twice unless noted for more or less:
| /   Slide up


************************************

Social Cues tab

Cage The Elephant guitar tabs for Social cues "Social Cues" is the title track of American alternative rockers Cage The Elephant's fifth studio album. "Social Cues" was released in 2019.

Other versions of Social Cues

Social cuesChords
Social cues (Ver. 2)Chords

Almost there ...

Sign in to get your own page with links to favourite songs and more. You are just one click away...

Login with Facebook Login with Google