GuitarTabsExplorer icon
GuitarTabsExplorer icon

Log in

Songbook

  • Log in to add and see bookmarks

Last visited songs

  • No songs visited yet...
Ready To Let Go by Cage The Elephant

Ready To Let Go bass tab by Cage The Elephant

Bass tabs

Tuning: Standard (E A D G)

Difficulty: Intermediate


Intro:
G|---------------------------------|---------------------------------|
D|-------------3-3-3~--3.----------|-------------3-3-3~--5-5-5~--6-6-|
A|-----------------------------3---|---------------------------------|
E|-1~------------------------------|-1~------------------------------|
  1 + + + 2 + + + 3 + + + 4 + + +  1 + + + 2 + + + 3 + + + 4 + + +

G|---------------------------------|---------------------------------|
D|-------------6-6-6~--6.----------|-------------6-6-6~--5-5-5~--4-4-|
A|-----------------------------6---|---------------------------------|
E|-4~--4.--------------------------|-4~------------------------------|
  1 + + + 2 + + + 3 + + + 4 + + +  1 + + + 2 + + + 3 + + + 4 + + +

Verse 1: "Sun went down ..."
G|---------------------------------|-----------------|
D|-------------3-3-3~--3.------3-3-|-3~--3.------3-3-|
A|---------------------------------|-----------------|
E|-1~--1.--------------------------|-----------------|
  1 + + + 2 + + + 3 + + + 4 + + +  1 + + + 2 + + +

G|---------------------------------|---------------------------------|
D|-6~--6.------6-6-6~----------6-6-|-6~--6.------6-6-6~--5-5-5~--4-4-|
A|---------------------------------|---------------------------------|
E|---------------------------------|---------------------------------|
  1 + + + 2 + + + 3 + + + 4 + + +  1 + + + 2 + + + 3 + + + 4 + + +

G|---------------------------------|---------------------------------|-----------------|
D|-3~--3.------3-3-3~----------3-3-|-3~--3.------3-3-3~----------3---|-3~----------3---|
A|---------------------------------|---------------------------------|-----------------|
E|---------------------------------|---------------------------------|-----------------|
  1 + + + 2 + + + 3 + + + 4 + + +  1 + + + 2 + + + 3 + + + 4 + + +  1 + + + 2 + + +

G|---------------------------------|---------------------------------|
D|-6~--6.------6-6-6~--6.------6-6-|-6~--6.------6-6-6~--6~--6\------|
A|---------------------------------|---------------------------------|
E|---------------------------------|---------------------------------|
  1 + + + 2 + + + 3 + + + 4 + + +  1 + + + 2 + + + 3 + + + 4 + + +

Pre-chorus 1: "As we slow dance ..."
G|---------------------------------|---------------------------------|
D|---------------------------------|---------------------------------|
A|-4~--4.------4-4-4~--4.------4-6-|-8~--8.------8-8-6~--6.------6~--|
E|---------------------------------|---------------------------------|
  1 + + + 2 + + + 3 + + + 4 + + +  1 + + + 2 + + + 3 + + + 4 + + +

G|---------------------------------|---------------------------------|
D|---------------------------------|---------------------------------|
A|-4~--4.------4-4-4~--4.------6~--|-8~--8.------8-8-6~--6.------6~--|
E|---------------------------------|---------------------------------|
  1 + + + 2 + + + 3 + + + 4 + + +  1 + + + 2 + + + 3 + + + 4 + + +

G|---------------------------------|---------------------------------|
D|---------------------------------|---------------------------------|
A|-4~------.---4-4-4~--4.------4-6-|-8~------.---8-8-6~------.---6---|
E|---------------------------------|---------------------------------|
  1 + + + 2 + + + 3 + + + 4 + + +  1 + + + 2 + + + 3 + + + 4 + + +

G|---------------------------------|---------------------------------|
D|---------------------------------|---------------------------------|
A|-----------------4~--4.------4~--|-3~------.---3---3~------.---3---|
E|-4~------.---4-4-----------------|---------------------------------|
  1 + + + 2 + + + 3 + + + 4 + + +  1 + + + 2 + + + 3 + + + 4 + + +

G|---------------------------------|
D|---------------------------------|
A|-3---3.------3---3~------3/------|
E|---------------------------------|
  1 + + + 2 + + + 3 + + + 4 + + +

Chorus 1: "Don't you worry baby ..."
G|---------------------------------|---------------------------------|
D|---------------------------------|---------------------------------|
A|-8~------.---8-8-8---7---6---5---|-4~------.---4-4-4---4.------4---|
E|---------------------------------|---------------------------------|
  1 + + + 2 + + + 3 + + + 4 + + +  1 + + + 2 + + + 3 + + + 4 + + +

G|---------------------------------|---------------------------------|
D|---------------------------------|---------------------------------|
A|---------------------------------|---------------------------------|
E|-4~------.---4-4-4---4.------4---|-8~------.---8-8-8~------.---8---|
  1 + + + 2 + + + 3 + + + 4 + + +  1 + + + 2 + + + 3 + + + 4 + + +

G|---------------------------------|---------------------------------|
D|---------------------------------|---------------------------------|
A|-8~------.---8-8-8---7---6---5---|-4~------.---4-4-4---4.------4---|
E|---------------------------------|---------------------------------|
  1 + + + 2 + + + 3 + + + 4 + + +  1 + + + 2 + + + 3 + + + 4 + + +

G|---------------------------------|---------------------------------|
D|---------------------------------|---------------------------------|
A|---------------------------------|---------------------------------|
E|-4~------.---4-4-4---4.------4---|-8~------.---8---8~------.---8---|
  1 + + + 2 + + + 3 + + + 4 + + +  1 + + + 2 + + + 3 + + + 4 + + +

G|---------------------------------|
D|---------------------------------|
A|---------------------------------|
E|-8~------.---8---8\--.-----------|
  1 + + + 2 + + + 3 + + + 4 + + +

Interlude:
G|---------------------------------|---------------------------------|
D|-------------3-3-3~--3.----------|-------------3-3-3~--5-5-5~--6-6-|
A|-----------------------------3---|---------------------------------|
E|-1~--1.--------------------------|-1~------------------------------|
  1 + + + 2 + + + 3 + + + 4 + + +  1 + + + 2 + + + 3 + + + 4 + + +

G|---------------------------------|---------------------------------|
D|-------------6-6-6~--6.----------|-------------6-6-6~--5-5-5~--4-4-|
A|-----------------------------6---|---------------------------------|
E|-4~--4.--------------------------|-4~------------------------------|
  1 + + + 2 + + + 3 + + + 4 + + +  1 + + + 2 + + + 3 + + + 4 + + +

Verse 2: "Sun went down ..."
G|---------------------------------|-----------------|
D|-------------3-3-3~--3.------3-3-|-3~--3.------3-3-|
A|---------------------------------|-----------------|
E|-1~--1.--------------------------|-----------------|
  1 + + + 2 + + + 3 + + + 4 + + +  1 + + + 2 + + +

G|---------------------------------|---------------------------------|
D|-6~--6.------6-6-6~--6.------6-6-|-6~--6.------6-6-6~--5-5-5~--4-4-|
A|---------------------------------|---------------------------------|
E|---------------------------------|---------------------------------|
  1 + + + 2 + + + 3 + + + 4 + + +  1 + + + 2 + + + 3 + + + 4 + + +

G|---------------------------------|---------------------------------|-----------------|
D|-3~--3.------3-3-3~----------3-3-|-3~--3.------3-3-3~----------3-3-|-3~--3.------3---|
A|---------------------------------|---------------------------------|-----------------|
E|---------------------------------|---------------------------------|-----------------|
  1 + + + 2 + + + 3 + + + 4 + + +  1 + + + 2 + + + 3 + + + 4 + + +  1 + + + 2 + + +

G|---------------------------------|---------------------------------|
D|-6~--6.------6-6-6~--6.------6-6-|-6~----------6-6-6~--6.----------|
A|---------------------------------|-----------------------------11\-|
E|---------------------------------|---------------------------------|
  1 + + + 2 + + + 3 + + + 4 + + +  1 + + + 2 + + + 3 + + + 4 + + +

Pre-chorus 2: "As we slow dance ..."
G|---------------------------------|---------------------------------|
D|---------------------------------|---------------------------------|
A|-4~--4.------4-4-4~--4.------4~--|-8~------.---8-8-6~--6.------6~--|
E|---------------------------------|---------------------------------|
  1 + + + 2 + + + 3 + + + 4 + + +  1 + + + 2 + + + 3 + + + 4 + + +

G|---------------------------------|---------------------------------|
D|---------------------------------|---------------------------------|
A|-4~--4.------4-4-4~--4.------6~--|-8~--8.------8-8-6~--6.------6~--|
E|---------------------------------|---------------------------------|
  1 + + + 2 + + + 3 + + + 4 + + +  1 + + + 2 + + + 3 + + + 4 + + +

G|---------------------------------|---------------------------------|
D|---------------------------------|---------------------------------|
A|-4~------.---4-4-4~--4.------4~--|-8~------.---8-8-6~------.---6---|
E|---------------------------------|---------------------------------|
  1 + + + 2 + + + 3 + + + 4 + + +  1 + + + 2 + + + 3 + + + 4 + + +

G|---------------------------------|---------------------------------|
D|---------------------------------|---------------------------------|
A|-----------------4~--4.------4~--|-3~----------3---3~----------3---|
E|-4~------.---4-4-----------------|---------------------------------|
  1 + + + 2 + + + 3 + + + 4 + + +  1 + + + 2 + + + 3 + + + 4 + + +

G|---------------------------------|
D|---------------------------------|
A|-3---3.------3---3---3---3---3---|
E|---------------------------------|
  1 + + + 2 + + + 3 + + + 4 + + +

Chorus 2: "Don't you worry baby ..."
G|---------------------------------|---------------------------------|
D|---------------------------------|---------------------------------|
A|-8~------.---8-8-8---7---6---5---|-4~------.---4-4-4---4.------4---|
E|---------------------------------|---------------------------------|
  1 + + + 2 + + + 3 + + + 4 + + +  1 + + + 2 + + + 3 + + + 4 + + +

G|---------------------------------|---------------------------------|
D|---------------------------------|---------------------------------|
A|---------------------------------|---------------------------------|
E|-4~------.---4-4-4---4.------4---|-8~------.---8---8~------.---8---|
  1 + + + 2 + + + 3 + + + 4 + + +  1 + + + 2 + + + 3 + + + 4 + + +

G|---------------------------------|---------------------------------|
D|---------------------------------|---------------------------------|
A|-8~------.---8-8-8---7---6---5---|-4~------.---4-4-4---4.------4---|
E|---------------------------------|---------------------------------|
  1 + + + 2 + + + 3 + + + 4 + + +  1 + + + 2 + + + 3 + + + 4 + + +

G|---------------------------------|---------------------------------|
D|---------------------------------|---------------------------------|
A|---------------------------------|---------------------------------|
E|-4~------.---4-4-4---4.------4---|-8~------.---8---8---8.------8---|
  1 + + + 2 + + + 3 + + + 4 + + +  1 + + + 2 + + + 3 + + + 4 + + +

G|---------------------------------|
D|---------------------------------|
A|---------------------------------|
E|-8---8.------8---8~------8~------|
  1 + + + 2 + + + 3 + + + 4 + + +

Solo:
G|---------------------------------|---------------------------------|
D|---------------------------------|---------------------------------|
A|-----------------------------6~--|-8~--8.------8---6~--6.------6~--|
E|-9~------.---9-9-9---9.----------|---------------------------------|
  1 + + + 2 + + + 3 + + + 4 + + +  1 + + + 2 + + + 3 + + + 4 + + +

G|---------------------------------|---------------------------------|
D|---------------------------------|---------------------------------|
A|-4~--4.------4-4-4~--4~--4~------|-8~--8.------8-8-6~--6.------6~--|
E|---------------------------------|---------------------------------|
  1 + + + 2 + + + 3 + + + 4 + + +  1 + + + 2 + + + 3 + + + 4 + + +

G|---------------------------------|---------------------------------|
D|---------------------------------|---------------------------------|
A|-----------------4~--4.------4~--|-3~----------3---3~----------3---|
E|-4~------.---4-4-----------------|---------------------------------|
  1 + + + 2 + + + 3 + + + 4 + + +  1 + + + 2 + + + 3 + + + 4 + + +

G|---------------------------------|
D|---------------------------------|
A|-3---3.------3---3---3---3---3---|
E|---------------------------------|
  1 + + + 2 + + + 3 + + + 4 + + +

Chorus 3: "Don't you worry baby ..."
G|---------------------------------|---------------------------------|
D|---------------------------------|---------------------------------|
A|-8~------.---8-8-8---7---6---5---|-4~------.---4-4-4---4.------4---|
E|---------------------------------|---------------------------------|
  1 + + + 2 + + + 3 + + + 4 + + +  1 + + + 2 + + + 3 + + + 4 + + +

G|---------------------------------|---------------------------------|
D|---------------------------------|---------------------------------|
A|---------------------------------|---------------------------------|
E|-4~------.---4-4-4---4.------4---|-8~------.---8---8~------.---8---|
  1 + + + 2 + + + 3 + + + 4 + + +  1 + + + 2 + + + 3 + + + 4 + + +

G|---------------------------------|---------------------------------|
D|---------------------------------|---------------------------------|
A|-8~------.---8-8-8---7---6---5---|-4~------.---4-4-4---4.------4---|
E|---------------------------------|---------------------------------|
  1 + + + 2 + + + 3 + + + 4 + + +  1 + + + 2 + + + 3 + + + 4 + + +

G|---------------------------------|---------------------------------|
D|---------------------------------|---------------------------------|
A|---------------------------------|---------------------------------|
E|-4~------.---4-4-4---4.------4---|-8~------.---8---8~----------8---|
  1 + + + 2 + + + 3 + + + 4 + + +  1 + + + 2 + + + 3 + + + 4 + + +

G|---------------------------------|
D|---------------------------------|
A|---------------------------------|
E|-8.------------------------------|
  1 + + + 2 + + + 3 + + + 4 + + +

*************************************

| . Staccato-end note
| / Slide up
| \ Slide down
| ~ Let ring

*************************************

[ Privacy | About us ]

Welcome to the guitar community

Why join and log in?
- Get songbook with favourite songs
- Get custom made front page
- Submit chords and tabs
- Submit guitar-cover videos
- Get a lot of thumbs up for your work

Songbook

Last visited songs

Site
Home
Search
Community
Submit chords

Video

No video for this page. Check out how you can submit guitar-cover videos here

Search tabs and chords

Browse by artist

A B C D E F G H I J K L M N O P Q R S T U V W X Y Z #


Menu

Search

Video

Bookmark

Login