Punchin Bag  by Cage The Elephant

Punchin Bag chords by Cage The Elephant (Ver. 2)

Guitar chords with lyrics

Intro:
e|----------------------------------------------------------|
B|----------------------------------------------------------|
G|----------------------------------------------------------|
D|----------------------------------------------------------|
A|-------7---3---5---3---5-----------7---3---5---3---5------| x2
E|---5-----------------------3---5-----------------------3--|

e|---------------------------------------------------------------------------|
B|---------------------------------------------------------------------------|
G|-------------------------------------------------------5---5---9---9-------|
D|-------------------------------------------------------5---5---9---9---7---|
A|-------7---3---5---3---5-----------7---3---5---3---5---3---3---7---7---7---|
E|---5-----------------------3---5---------------------------------------5---|

Verse 1:
     A      G       E      A
 She's a stone cold straight-faced killer and a lover
   C     E       A
 And she won't put up with another
 G     E       A
 Brute who only wants to bruise her
 C    E       A
 Take her love and then abuse her
   G       E   A
 She won't take no more, won't take no more
 C     E    A
 Won't take no more, won't take no more

Bridge:
G       F#  F  E   E F F#
 Oh no ain't need to drag
G              F# F E
 If you take a swing, she swing back
N.C
 She say I'm not your punchin' bag

Chorus:
A          G      E
 Heaven help ya I'm telling the truth
A           C     E
 Heaven help ya she's coming for you
A          G       E
 Heaven help ya the girl likes to fight
N.C
 Afraid of nothing and she carries a knife
      A    G      E     A
 She said (oh no) I'm not your punchin' bag (oh no)
 C      E     A
 I'm not your punchin' bag (oh no)
 G      E
 I'm not your punchin' bag

Post-Chorus:
e|----------------------------------------------------------|
B|----------------------------------------------------------|
G|----------------------------------------------------------|
D|----------------------------------------------------------|
A|-------7---3---5---3---5-----------7---3---5---3---5------| x2
E|---5-----------------------3---5-----------------------3--|

e|---------------------------------------------------------------------------|
B|---------------------------------------------------------------------------|
G|-------------------------------------------------------5---5---9---9-------|
D|-------------------------------------------------------5---5---9---9---7---|
A|-------7---3---5---3---5-----------7---3---5---3---5---3---3---7---7---7---|
E|---5-----------------------3---5---------------------------------------5---|

Verse 2:
        A
 What kind of man are you?
  G    E        A
 Instead of kisses you gave bruises
 C    E        A
 No more time for cheap excuses
   G   E        A
 If I were you, I would be leaving
 C    E           A
 Best you go while you're still breathing
   G       E   A
 She won't take no more, won't take no more
 C     E    A
 Won't take no more, won't take no more

Bridge:
G       F#  F  E   E F F#
 Oh no ain't need to drag
G               F#  F E
 If you take a swing, the kid swings back
N.C
 She say I'm not your punchin' bag

Chorus:
A          G      E
 Heaven help ya I'm telling the truth
A           C     E
 Heaven help ya she's coming for you
A          G       E
 Heaven help ya the girl likes to fight
N.C
 Afraid of nothing and she carries a knife
      A    G      E     A
 She said (oh no) I'm not your punchin' bag (oh no)
 C      E     A
 I'm not your punchin' bag (oh no)
 G      E
 I'm not your punchin' bag

Instrumental:
A G# G F#
G F# F E

Interlude:
E
 Last time, last time you're ever gonna
A
 Last time, last time you're ever gonna
E
 Last time, last time you're ever gonna
A
 Last time, last time you're ever gonna

Bridge:
G       F#  F  E   E F F#
 Oh no ain't need to drag
G                 F# F E
 Everywhere you go, better watch your back
N.C
 Cause I'm not your punchin' bag

Chorus:
A          G      E
 Heaven help ya I'm telling the truth
A           C     E
 Heaven help ya she's coming for you
A          G       E
 Heaven help ya the girl likes to fight
N.C
 Afraid of nothing and she carries a knife
      A    G      E     A
 She said (oh no) I'm not your punchin' bag (oh no)
 C      E     A
 I'm not your punchin' bag (oh no)
 G      E

Other versions of Punchin Bag

Alternative guitar chords and tabs for Punchin Bag by Cage The Elephant

Find guitar tabs and chords

A B C D E F G H I J K L M N O P Q R S T U V W X Y Z #