Log in

One click and you are in

Login with Facebook Login with Google

Why sign up and log in

Guitar Tabs Explorer
Cage The Elephant bass tabs for Psycho killer

Bass tabs

"Psycho killer" by Talking Heads
-----------------------------------


Intro & Verse:

G ---------------------------------|
D ---------------------------------|
A ---------------------------------|
E -5---5---5---5---5---5---5-0-3---|
Chorus:

G ---------------------------------| \
D -3-------3-------5-------5-------|  \
A -----5-3-----5-3-----7-5-----7-5-|  \
E ---------------------------------|  \
                          |
G ---------------------------------|  |
D ---------------------------------|  |
A ---------------------------------|  /
E -5---5-3-5---5-3-5---5-3-5---5---|  |

G ---------------------------------|  |
D -3-------3-------5-------5-------|
A -----5-3-----5-3-----7-5-----7-5-|
E ---------------------------------|  |
                          |
G ---------------------------------|  /
D ---------------------------------|  /
A -3---3-2-3---3-2-3---3-2-3---3---| /
E ---------------------------------| /


Bridge:

G ---------------------------------|  \
D -4---2---0-----------------------|  |
A -------------4---2---0---2---4---|  |
E ---------------------------------|  /

G ---------------------------------|  \
D -5---4---2---0---5---4---2---0---|  |
A ---------------------------------|  |
E ---------------------------------|  /

G ---------------------------------|
D -----4-2-0-----4-2-0-------------|
A -----------0---------0-----------|
E ---------------------------------|

G -----4-2-0-----4-2-0-------------|
D -----------0---------0-----------|
A ---------------------------------|
E ---------------------------------|


Ending

G ---------------------------------|
D -----7-------7-------7-------7---| etc.
A -7-------7-------7-------7-------| etc.
E ---5---5---5---5---5---5---5---5-|

ⓘ Bass guitar tab for 'Psycho Killer' by Cage The Elephant, an alternative rock band formed in 2007 from Bowling Green, USA

Almost there ...

Sign in to get your own page with links to favourite songs and more. You are just one click away...

Login with Facebook Login with Google