Log in

One click and you are in

Login with Facebook Login with Google

Why sign up and log in

Guitar Tabs Explorer
Cage The Elephant bass tabs for Indy kidz

Bass tabs

Intro: Bass kicks at around 0:05
G|---------------------------------|---------------------------------|
D|---------------------------------|---------------------------------|
A|-----6h7-----6h7-----6h7-----6h7-|---------------------------------| (x3)
E|-0-0-----0-0-----0-0-----0-0-----|-0-0-6h7-0-0-6h7-0-0-6h7-0-0-6h7-|
  1 + + + 2 + + + 3 + + + 4 + + +  1 + + + 2 + + + 3 + + + 4 + + +

G|---------------------------------|---------------------------------|
D|---------------------------------|---------------------------------|
A|-----6h7-----6h7-----6h7-----6h7-|---------------------7---6-------|
E|-0-0-----0-0-----0-0-----0-0-----|-0-0-6h7-0-0-6h7-0-0-------7-6---|
  1 + + + 2 + + + 3 + + + 4 + + +  1 + + + 2 + + + 3 + + + 4 + + +

G|---------------------------------|---------------------------------|
D|---------------------------------|---------------------------------|
A|-----6h7-----6h7-----6h7-----6h7-|---------------------------------| (x2)
E|-0-0-----0-0-----0-0-----0-0-----|-0-0-6h7-0-0-6h7-0-0-6h7-0-0-6h7-|
  1 + + + 2 + + + 3 + + + 4 + + +  1 + + + 2 + + + 3 + + + 4 + + +


Verse 1: "I've got these pictures ..."
G|---------------------------------|---------------------------------|
D|---------------------------------|---------------------------------|
A|-----6h7-----6h7-----6h7-----6h7-|---------------------------------| (x2)
E|-0-0-----0-0-----0-0-----0-0-----|-0-0-6h7-0-0-6h7-0-0-6h7-0-0-6h7-|
  1 + + + 2 + + + 3 + + + 4 + + +  1 + + + 2 + + + 3 + + + 4 + + +

G|---------------------------------|---------------------------------|
D|---------------------------------|---------------------------------|
A|---------------------------------|---------------------------------|
E|-5---5---5-5-5-5-5-5-5-5-5-5-5/--|-12-12~------h12-h12~--------12\-| (Hammer-on from 10 to 12)
  1 + + + 2 + + + 3 + + + 4 + + +  1 + + + 2 + + + 3 + + + 4 + + +

G|---------------------------------|---------------------------------|
D|---------------------------------|---------------------------------|
A|---------------------------------|---------------------------------|
E|-5-5-5---5-5-5-5-5-5-5-5-5-5-5/--|-12b~------------\-5-5-5-5-5-5-5-|
  1 + + + 2 + + + 3 + + + 4 + + +  1 + + + 2 + + + 3 + + + 4 + + +

Instrumental:
G|---------------------------------|---------------------------------|
D|---------------------------------|---------------------------------|
A|-----6h7-----6h7-----6h7-----6h7-|---------------------------------| (x2)
E|-0-0-----0-0-----0-0-----0-0-----|-0-0-6h7-0-0-6h7-0-0-6h7-0-0-6h7-|
  1 + + + 2 + + + 3 + + + 4 + + +  1 + + + 2 + + + 3 + + + 4 + + +


Verse 2: "I don't watch tv ..."
G|---------------------------------|---------------------------------|
D|---------------------------------|---------------------------------|
A|-----6h7-----6h7-----6h7-----6h7-|---------------------------------| (x2)
E|-0-0-----0-0-----0-0-----0-0-----|-0-0-6h7-0-0-6h7-0-0-6h7-0-0-6h7-|
  1 + + + 2 + + + 3 + + + 4 + + +  1 + + + 2 + + + 3 + + + 4 + + +

G|---------------------------------|---------------------------------|
D|---------------------------------|---------------------------------|
A|---------------------------------|---------------------------------|
E|-5---5---5-5-5-5-5-5-5-5-5-5-5/--|-12-12~------h12-h12~--------12\-| (Hammer-on from 10 to 12)
  1 + + + 2 + + + 3 + + + 4 + + +  1 + + + 2 + + + 3 + + + 4 + + +

G|---------------------------------|---------------------------------|
D|---------------------------------|---------------------------------|
A|---------------------------------|---------------------------------| (Listen carefully to this part, to get
E|-5-5-5---5-5-5-5-5-5-5-5-5-5-5/--|-12b.---0-0.--0~--5-5-5-5-5-5-6--|       the timing)
  1 + + + 2 + + + 3 + + + 4 + + +


Bridge:
G|---------------------------------|---------------------------------|
D|---------------------------------|---------------------------------|
A|-----6h7-----6h7-----6h7-----6h7-|---------------------------------| (x2)
E|-0-0-----0-0-----0-0-----0-0-----|-0-0-6h7-0-0-6h7-0-0-6h7-0-0-6h7-|
  1 + + + 2 + + + 3 + + + 4 + + +  1 + + + 2 + + + 3 + + + 4 + + +

G|---------------------------------|---------------------------------|
D|-----------------8---8---8---8h9-|-----------------8---8---8---8h9-|
A|-----6h7-----6h7-----------------|-----6h7-----6h7-----------------| (x2)
E|-0-0-----0-0---------------------|-0-0-----0-0---------------------|
  1 + + + 2 + + + 3 + + + 4 + + +  1 + + + 2 + + + 3 + + + 4 + + +


Chorus 1:
G|---------------------------------|---------------------------------|
D|---------------------------------|---------------------------------|
A|---------------------------------|---------------------------------|
E|-3-3-3-3-2-2-2-2-5-5-5-5-4-4-4-4-|-7-7-7-7-6-6-6-6-9-9-9-9-8-8-8-8-|
  1 + + + 2 + + + 3 + + + 4 + + +  1 + + + 2 + + + 3 + + + 4 + + +

G|---------------------------------|---------------------------------|
D|---------------------------------|---------------------------------|
A|---------------------------------|---------------------------------|
E|-6---6---6---6---6---6---6---6---|-6---6---6---6---6---6---6---6---|
  1 + + + 2 + + + 3 + + + 4 + + +  1 + + + 2 + + + 3 + + + 4 + + +


Verse 3: "I got to go down ..."
G|---------------------------------|---------------------------------|
D|---------------------------------|---------------------------------|
A|-----6h7-----6h7-----6h7-----6h7-|---------------------------------|
E|-0-0-----0-0-----0-0-----0-0-----|-0-0.--------6h7-0-0.--------6h7-|
  1 + + + 2 + + + 3 + + + 4 + + +  1 + + + 2 + + + 3 + + + 4 + + +

G|---------------------------------|---------------------------------|
D|---------------------------------|---------------------------------|
A|-----6h7-----6h7-----6h7-----6h7-|---------------------------------| (x3)
E|-0-0-----0-0-----0-0-----0-0-----|-0-0-6h7-0-0-6h7-0-0-6h7-0-0-6h7-|
  1 + + + 2 + + + 3 + + + 4 + + +  1 + + + 2 + + + 3 + + + 4 + + +


Chorus 2:
G|---------------------------------|---------------------------------|
D|---------------------------------|---------------------------------|
A|---------------------------------|---------------------------------| (x2)
E|-3-3-3-3-2-2-2-2-5-5-5-5-4-4-4-4-|-7-7-7-7-6-6-6-6-9-9-9-9-8-8-8-8-|
  1 + + + 2 + + + 3 + + + 4 + + +  1 + + + 2 + + + 3 + + + 4 + + +


Outro:
G|---------------------------------|---------------------------------|
D|---------------------------------|----9-8-7-8-9--------------------|
A|---------------------------------|----------------10----8----------| (Listen carefully to this part, to get
E|-0~----------------------------0~|--------------8---8-6-----3b--0~-|       the timing)

Repeat the outro and slowly fade out in low E


***********************************

| / Slide up
| \ Slide down
| . Sttacato
| ~ Let ring
| b Bend
| h Hammer-on
ⓘ Bass guitar tab for 'Indy Kidz' by Cage The Elephant, an alternative rock band formed in 2007 from Bowling Green, USA

Almost there ...

Sign in to get your own page with links to favourite songs and more. You are just one click away...

Login with Facebook Login with Google