GuitarTabsExplorer icon
GuitarTabsExplorer icon

Log in

Songbook

  • Log in to add and see bookmarks

Last visited songs

  • No songs visited yet...
Halo by Cage The Elephant

Bass tabs

Intro:
G|---------------------------------|---------------------------------|
D|---------------------------------|---------------------------------|
A|---------------------------------|---------------------------------|
E|---------------------------------|---------------------------------|
  1 + + + 2 + + + 3 + + + 4 + + +  1 + + + 2 + + + 3 + + + 4 + + +

G|---------------------------------|---------------------------------|
D|---------------------------------|-0-----------0--/5-------0-------|
A|-1-1-1---1-----------------------|---------------------------------|
E|---------------------------------|---------------------------------|
  1 + + + 2 + + + 3 + + + 4 + + +  1 + + + 2 + + + 3 + + + 4 + + +

G|---------------------------------|---------------------------------|
D|---------------------------------|---------------------------------|
A|-1---x-x-1---x-1---1-x-x-1h3-x-x-|---------------------------------| (x2)
E|---------------------------------|-3---x-x-3---x-3---3-x-x-3---1---|
  1 + + + 2 + + + 3 + + + 4 + + +  1 + + + 2 + + + 3 + + + 4 + + +

Verse 1: "Every time I get away ..."
G|---------------------------------|---------------------------------|
D|---------------------------------|---------------------------------|
A|-1---x-x-1---x-1---1-x-x-1h3-x-x-|---------------------------------| (x7)
E|---------------------------------|-3---x-x-3---x-3---3-x-x-3---1---|
  1 + + + 2 + + + 3 + + + 4 + + +  1 + + + 2 + + + 3 + + + 4 + + +

G|---------------------------------|---------------------------------|
D|---------------------------------|---------------------------------|
A|-1---x-x-1---x-1---1-x-x-1h3-x-x-|------------------/8-8-8-8-8-8-8-|
E|---------------------------------|-3---x-x-3---x-3-----------------|
  1 + + + 2 + + + 3 + + + 4 + + +  1 + + + 2 + + + 3 + + + 4 + + +

Pre-chorus 1: "Why does it take so long? ..."
G|---------------------------------|---------------------------------|
D|---------5---8---------------7---|-----------------5.--5.----------|
A|-6.--6.----------5.--5.--8-------|-3.--3.--5.--6.----------6---3---| (x3)
E|---------------------------------|---------------------------------|
  1 + + + 2 + + + 3 + + + 4 + + +  1 + + + 2 + + + 3 + + + 4 + + +

Chorus 1: "Knew I, couldn´t help myself ..."
G|---------------------------------|---------------------------------|
D|---------------------------------|---------------------------------|
A|-1---1---1---1---1---1---1---3---|-5---5---5---5---5---5---5---5---|
E|---------------------------------|---------------------------------|
  1 + + + 2 + + + 3 + + + 4 + + +  1 + + + 2 + + + 3 + + + 4 + + +

G|---------------------------------|---------------------------------|
D|---------------------------------|-----------------3---3---3---5---|
A|-1---1---1---1---1---1---1---3---|-5---5---5---5-------------------|
E|---------------------------------|---------------------------------|
  1 + + + 2 + + + 3 + + + 4 + + +  1 + + + 2 + + + 3 + + + 4 + + +

G|---------------------------------|---------------------------------|
D|---------------------------------|---------------------------------|
A|-1---1---1---1---1---1---1---3---|-5---5---5---5---5---5---5---5---|
E|---------------------------------|---------------------------------|
  1 + + + 2 + + + 3 + + + 4 + + +  1 + + + 2 + + + 3 + + + 4 + + +

G|---------------------------------|---------------------------------|
D|---------------------------------|/7---7---7---7---3---3---3---5---|
A|-1---1---1---1---1---1---1---3---|---------------------------------|
E|---------------------------------|---------------------------------|
  1 + + + 2 + + + 3 + + + 4 + + +  1 + + + 2 + + + 3 + + + 4 + + +

Verse 2: "Take me by the hand ..."
G|---------------------------------|---------------------------------|
D|---------------------------------|---------------------------------|
A|-1---x-x-1---x-1---1-x-x-1h3-x-x-|---------------------------------| (x7)
E|---------------------------------|-3---x-x-3---x-3---3-x-x-3---1---|
  1 + + + 2 + + + 3 + + + 4 + + +  1 + + + 2 + + + 3 + + + 4 + + +

G|---------------------------------|---------------------------------|
D|---------------------------------|---------------------------------|
A|-1---x-x-1---x-1---1-x-x-1h3-x-x-|------------------/8-8-8-8-8-8-8-|
E|---------------------------------|-3---x-x-3---x-3-----------------|
  1 + + + 2 + + + 3 + + + 4 + + +  1 + + + 2 + + + 3 + + + 4 + + +

Pre-chorus 2: "Why does it take so long? ..."
G|---------------------------------|---------------------------------|
D|---------5---8---------------7---|-----------------5.--5.----------|
A|-6.--6.----------5.--5.--8-------|-3.--3.--5.--6.----------6---3---|
E|---------------------------------|---------------------------------|
  1 + + + 2 + + + 3 + + + 4 + + +  1 + + + 2 + + + 3 + + + 4 + + +

G|---------------------------------|---------------------------------|
D|---------5---8---------------7---|---------------------------------|
A|-6.--6.----------5.--5.--8-------|-3---\-----------3-3-3-3-3-3-3-3-|
E|---------------------------------|---------------------------------|
  1 + + + 2 + + + 3 + + + 4 + + +  1 + + + 2 + + + 3 + + + 4 + + +

Chorus 2: "Knew I, couldn´t help myself ..."
G|---------------------------------|---------------------------------|
D|---------------------------------|---------------------------------|
A|-1---1---1---1---1---1---1---3---|-5---5---5---5---5---5---5---5---|
E|---------------------------------|---------------------------------|
  1 + + + 2 + + + 3 + + + 4 + + +  1 + + + 2 + + + 3 + + + 4 + + +

G|---------------------------------|---------------------------------|
D|---------------------------------|-----------------3---3---3---5---|
A|-1---1---1---1---1---1---1---3---|-5---5---5---5-------------------|
E|---------------------------------|---------------------------------|
  1 + + + 2 + + + 3 + + + 4 + + +  1 + + + 2 + + + 3 + + + 4 + + +

G|---------------------------------|---------------------------------|
D|---------------------------------|---------------------------------|
A|-1---1---1---1---1---1---1---3---|-5---5---5---5---5---5---5---5---|
E|---------------------------------|---------------------------------|
  1 + + + 2 + + + 3 + + + 4 + + +  1 + + + 2 + + + 3 + + + 4 + + +

G|---------------------------------|---------------------------------|
D|---------------------------------|/7---7---7---7---3---3---3---5---|
A|-1---1---1---1---1---1---1---3---|---------------------------------|
E|---------------------------------|---------------------------------|
  1 + + + 2 + + + 3 + + + 4 + + +  1 + + + 2 + + + 3 + + + 4 + + +

Interlude:
G|---------------------------------|---------------------------------|
D|---------------------------------|---------------------------------|
A|---------------------------------|---------------------------------|
E|---------------------------------|---------------------------------|
  1 + + + 2 + + + 3 + + + 4 + + +  1 + + + 2 + + + 3 + + + 4 + + +

G|---------------------------------|---------------------------------|
D|---------------------------------|-----------------5---------------|
A|---------------------------------|-------------------------5-------|
E|---------------------------------|---------------------------------|
  1 + + + 2 + + + 3 + + + 4 + + +  1 + + + 2 + + + 3 + + + 4 + + +

G|---------------------------------|---------------------------------|
D|---------------------------------|---------------------------------|
A|---------------------------------|---------------------------------| (x2)
E|---------------------------------|---------------------------------|
  1 + + + 2 + + + 3 + + + 4 + + +  1 + + + 2 + + + 3 + + + 4 + + +

Final Chorus: "Before I ..."
G|---------------------------------|---------------------------------|
D|---------------------------------|---------------------------------|
A|-1---1---1---1---1---1---1---3---|-5---5---5---5---5---5---5---5---|
E|---------------------------------|---------------------------------|
  1 + + + 2 + + + 3 + + + 4 + + +  1 + + + 2 + + + 3 + + + 4 + + +

G|---------------------------------|---------------------------------|
D|---------------------------------|-----------------3---3---3---5---|
A|-1---1---1---1---1---1---1---3---|-5---5---5---5-------------------| (x3)
E|---------------------------------|---------------------------------|
  1 + + + 2 + + + 3 + + + 4 + + +  1 + + + 2 + + + 3 + + + 4 + + +

G|---------------------------------|---------------------------------|
D|---------------------------------|---------------------------------|
A|-1-------------------------------|---------------------------------|
E|---------------------------------|---------------------------------|
  1 + + + 2 + + + 3 + + + 4 + + +  1 + + + 2 + + + 3 + + + 4 + + +

[ Privacy | About us ]

Welcome to the guitar community

Why join and log in?
- Get songbook with favourite songs
- Get custom made front page
- Submit chords and tabs
- Submit guitar-cover videos
- Get a lot of thumbs up for your work

Songbook

Last visited songs

Site
Home
Search
Community
Submit chords

Video

No video for this page. Check out how you can submit guitar-cover videos here

Search tabs and chords

Browse by artist

A B C D E F G H I J K L M N O P Q R S T U V W X Y Z #


Menu

Search

Video

Bookmark

Login